ISO-10303-21;
HEADER;
/* Generated by software containing ST-Developer
 * from STEP Tools, Inc. (www.steptools.com) 
 */
/* OPTION: using custom schema-name function */

FILE_DESCRIPTION(
/* description */ (''),
/* implementation_level */ '2;1');

FILE_NAME(
/* name */ 'KDS-DE-FB3-A.stp',
/* time_stamp */ '2018-07-12T14:22:53+02:00',
/* author */ (''),
/* organization */ (''),
/* preprocessor_version */ 'ST-DEVELOPER v16',
/* originating_system */ 'SIEMENS PLM Software NX 10.0',
/* authorisation */ '');

FILE_SCHEMA (('AP203_CONFIGURATION_CONTROLLED_3D_DESIGN_OF_MECHANICAL_PARTS_AND_ASSEMBLIES_MIM_LF { 1 0 10303 403 2 1 2}'));
ENDSEC;

DATA;
#10=PROPERTY_DEFINITION_REPRESENTATION(#14,#12);
#11=PROPERTY_DEFINITION_REPRESENTATION(#15,#13);
#12=REPRESENTATION('',(#16),#543);
#13=REPRESENTATION('',(#17),#543);
#14=PROPERTY_DEFINITION('pmi validation property','',#89);
#15=PROPERTY_DEFINITION('pmi validation property','',#89);
#16=VALUE_REPRESENTATION_ITEM('number of annotations',COUNT_MEASURE(0.));
#17=VALUE_REPRESENTATION_ITEM('number of views',COUNT_MEASURE(0.));
#18=SHAPE_REPRESENTATION_RELATIONSHIP('None',
'relationship between scho1468EB90qzhh-None and scho1468EB90qzhh-None',
#100,#19);
#19=ADVANCED_BREP_SHAPE_REPRESENTATION('scho1468EB90qzhh-None',(#101),#543);
#20=CC_DESIGN_APPROVAL(#32,(#90));
#21=CC_DESIGN_APPROVAL(#33,(#92));
#22=CC_DESIGN_APPROVAL(#34,(#39));
#23=APPROVAL_PERSON_ORGANIZATION(#77,#32,#26);
#24=APPROVAL_PERSON_ORGANIZATION(#78,#33,#27);
#25=APPROVAL_PERSON_ORGANIZATION(#79,#34,#28);
#26=APPROVAL_ROLE('approver');
#27=APPROVAL_ROLE('approver');
#28=APPROVAL_ROLE('approver');
#29=APPROVAL_DATE_TIME(#47,#32);
#30=APPROVAL_DATE_TIME(#48,#33);
#31=APPROVAL_DATE_TIME(#49,#34);
#32=APPROVAL(#35,' ');
#33=APPROVAL(#36,' ');
#34=APPROVAL(#37,' ');
#35=APPROVAL_STATUS('not_yet_approved');
#36=APPROVAL_STATUS('not_yet_approved');
#37=APPROVAL_STATUS('not_yet_approved');
#38=CC_DESIGN_SECURITY_CLASSIFICATION(#39,(#92));
#39=SECURITY_CLASSIFICATION(' ',' ',#40);
#40=SECURITY_CLASSIFICATION_LEVEL('confidential');
#41=CC_DESIGN_DATE_AND_TIME_ASSIGNMENT(#45,#43,(#90));
#42=CC_DESIGN_DATE_AND_TIME_ASSIGNMENT(#46,#44,(#39));
#43=DATE_TIME_ROLE('creation_date');
#44=DATE_TIME_ROLE('classification_date');
#45=DATE_AND_TIME(#60,#50);
#46=DATE_AND_TIME(#61,#51);
#47=DATE_AND_TIME(#62,#52);
#48=DATE_AND_TIME(#63,#53);
#49=DATE_AND_TIME(#64,#54);
#50=LOCAL_TIME(0,0,0.,#55);
#51=LOCAL_TIME(0,0,0.,#56);
#52=LOCAL_TIME(0,0,0.,#57);
#53=LOCAL_TIME(0,0,0.,#58);
#54=LOCAL_TIME(0,0,0.,#59);
#55=COORDINATED_UNIVERSAL_TIME_OFFSET(0,0,.BEHIND.);
#56=COORDINATED_UNIVERSAL_TIME_OFFSET(0,0,.BEHIND.);
#57=COORDINATED_UNIVERSAL_TIME_OFFSET(0,0,.BEHIND.);
#58=COORDINATED_UNIVERSAL_TIME_OFFSET(0,0,.BEHIND.);
#59=COORDINATED_UNIVERSAL_TIME_OFFSET(0,0,.BEHIND.);
#60=CALENDAR_DATE(0,1,1);
#61=CALENDAR_DATE(0,1,1);
#62=CALENDAR_DATE(0,1,1);
#63=CALENDAR_DATE(0,1,1);
#64=CALENDAR_DATE(0,1,1);
#65=CC_DESIGN_PERSON_AND_ORGANIZATION_ASSIGNMENT(#73,#69,(#90,#92));
#66=CC_DESIGN_PERSON_AND_ORGANIZATION_ASSIGNMENT(#74,#70,(#94));
#67=CC_DESIGN_PERSON_AND_ORGANIZATION_ASSIGNMENT(#75,#71,(#92));
#68=CC_DESIGN_PERSON_AND_ORGANIZATION_ASSIGNMENT(#76,#72,(#39));
#69=PERSON_AND_ORGANIZATION_ROLE('creator');
#70=PERSON_AND_ORGANIZATION_ROLE('design_owner');
#71=PERSON_AND_ORGANIZATION_ROLE('design_supplier');
#72=PERSON_AND_ORGANIZATION_ROLE('classification_officer');
#73=PERSON_AND_ORGANIZATION(#87,#80);
#74=PERSON_AND_ORGANIZATION(#87,#81);
#75=PERSON_AND_ORGANIZATION(#87,#82);
#76=PERSON_AND_ORGANIZATION(#87,#83);
#77=PERSON_AND_ORGANIZATION(#87,#84);
#78=PERSON_AND_ORGANIZATION(#87,#85);
#79=PERSON_AND_ORGANIZATION(#87,#86);
#80=ORGANIZATION(' ',' ',' ');
#81=ORGANIZATION(' ',' ',' ');
#82=ORGANIZATION(' ',' ',' ');
#83=ORGANIZATION(' ',' ',' ');
#84=ORGANIZATION(' ',' ',' ');
#85=ORGANIZATION(' ',' ',' ');
#86=ORGANIZATION(' ',' ',' ');
#87=PERSON(' ',' ',' ',(' '),$,$);
#88=SHAPE_DEFINITION_REPRESENTATION(#89,#100);
#89=PRODUCT_DEFINITION_SHAPE('','',#90);
#90=PRODUCT_DEFINITION(' ','',#92,#91);
#91=DESIGN_CONTEXT('',#99,'design');
#92=PRODUCT_DEFINITION_FORMATION_WITH_SPECIFIED_SOURCE(' ',' ',#94,
 .NOT_KNOWN.);
#93=PRODUCT_RELATED_PRODUCT_CATEGORY('detail','',(#94));
#94=PRODUCT('scho1468EB90qzhh','scho1468EB90qzhh',' ',(#97));
#95=PRODUCT_CATEGORY('part',' ');
#96=PRODUCT_CATEGORY(' ','');
#97=MECHANICAL_CONTEXT(' ',#99,'mechanical');
#98=APPLICATION_PROTOCOL_DEFINITION('international standard',
'config_control_design',2010,#99);
#99=APPLICATION_CONTEXT(
'configuration controlled 3D designs of mechanical parts and assemblie
s');
#100=SHAPE_REPRESENTATION('scho1468EB90qzhh-None',(#371),#543);
#101=MANIFOLD_SOLID_BREP('',#102);
#102=CLOSED_SHELL('',(#113,#114,#115,#116,#117,#118,#119,#120,#121,#122,
#123,#124,#125,#126,#127,#128));
#103=FACE_BOUND('',#162,.T.);
#104=FACE_BOUND('',#163,.T.);
#105=FACE_BOUND('',#168,.T.);
#106=FACE_BOUND('',#169,.T.);
#107=CONICAL_SURFACE('',#376,3.25,0.5);
#108=CONICAL_SURFACE('',#379,3.25,0.5);
#109=CIRCLE('',#374,3.24127313220924);
#110=CIRCLE('',#375,3.25);
#111=CIRCLE('',#377,3.24127313220924);
#112=CIRCLE('',#378,3.25);
#113=ADVANCED_FACE('',(#143),#129,.F.);
#114=ADVANCED_FACE('',(#144),#130,.F.);
#115=ADVANCED_FACE('',(#145),#107,.F.);
#116=ADVANCED_FACE('',(#146),#108,.F.);
#117=ADVANCED_FACE('',(#147),#131,.T.);
#118=ADVANCED_FACE('',(#103,#104),#132,.F.);
#119=ADVANCED_FACE('',(#148),#133,.T.);
#120=ADVANCED_FACE('',(#149),#134,.T.);
#121=ADVANCED_FACE('',(#150),#135,.T.);
#122=ADVANCED_FACE('',(#151),#136,.T.);
#123=ADVANCED_FACE('',(#105,#106),#137,.T.);
#124=ADVANCED_FACE('',(#152),#138,.F.);
#125=ADVANCED_FACE('',(#153),#139,.F.);
#126=ADVANCED_FACE('',(#154),#140,.F.);
#127=ADVANCED_FACE('',(#155),#141,.F.);
#128=ADVANCED_FACE('',(#156),#142,.T.);
#129=PLANE('',#372);
#130=PLANE('',#373);
#131=PLANE('',#380);
#132=PLANE('',#381);
#133=PLANE('',#382);
#134=PLANE('',#383);
#135=PLANE('',#384);
#136=PLANE('',#385);
#137=PLANE('',#386);
#138=PLANE('',#387);
#139=PLANE('',#388);
#140=PLANE('',#389);
#141=PLANE('',#390);
#142=PLANE('',#391);
#143=FACE_OUTER_BOUND('',#157,.T.);
#144=FACE_OUTER_BOUND('',#158,.T.);
#145=FACE_OUTER_BOUND('',#159,.T.);
#146=FACE_OUTER_BOUND('',#160,.T.);
#147=FACE_OUTER_BOUND('',#161,.T.);
#148=FACE_OUTER_BOUND('',#164,.T.);
#149=FACE_OUTER_BOUND('',#165,.T.);
#150=FACE_OUTER_BOUND('',#166,.T.);
#151=FACE_OUTER_BOUND('',#167,.T.);
#152=FACE_OUTER_BOUND('',#170,.T.);
#153=FACE_OUTER_BOUND('',#171,.T.);
#154=FACE_OUTER_BOUND('',#172,.T.);
#155=FACE_OUTER_BOUND('',#173,.T.);
#156=FACE_OUTER_BOUND('',#174,.T.);
#157=EDGE_LOOP('',(#175,#176,#177,#178));
#158=EDGE_LOOP('',(#179,#180,#181,#182));
#159=EDGE_LOOP('',(#183,#184,#185,#186));
#160=EDGE_LOOP('',(#187,#188,#189,#190));
#161=EDGE_LOOP('',(#191,#192,#193,#194));
#162=EDGE_LOOP('',(#195,#196,#197,#198));
#163=EDGE_LOOP('',(#199,#200,#201,#202));
#164=EDGE_LOOP('',(#203,#204,#205,#206));
#165=EDGE_LOOP('',(#207,#208,#209,#210));
#166=EDGE_LOOP('',(#211,#212,#213,#214));
#167=EDGE_LOOP('',(#215,#216,#217,#218));
#168=EDGE_LOOP('',(#219,#220,#221,#222));
#169=EDGE_LOOP('',(#223,#224,#225,#226));
#170=EDGE_LOOP('',(#227,#228,#229,#230));
#171=EDGE_LOOP('',(#231,#232,#233,#234));
#172=EDGE_LOOP('',(#235,#236,#237,#238));
#173=EDGE_LOOP('',(#239,#240,#241,#242));
#174=EDGE_LOOP('',(#243,#244,#245,#246));
#175=ORIENTED_EDGE('',*,*,#271,.F.);
#176=ORIENTED_EDGE('',*,*,#272,.F.);
#177=ORIENTED_EDGE('',*,*,#273,.F.);
#178=ORIENTED_EDGE('',*,*,#274,.T.);
#179=ORIENTED_EDGE('',*,*,#275,.F.);
#180=ORIENTED_EDGE('',*,*,#276,.F.);
#181=ORIENTED_EDGE('',*,*,#277,.F.);
#182=ORIENTED_EDGE('',*,*,#278,.T.);
#183=ORIENTED_EDGE('',*,*,#279,.F.);
#184=ORIENTED_EDGE('',*,*,#278,.F.);
#185=ORIENTED_EDGE('',*,*,#280,.F.);
#186=ORIENTED_EDGE('',*,*,#272,.T.);
#187=ORIENTED_EDGE('',*,*,#281,.F.);
#188=ORIENTED_EDGE('',*,*,#274,.F.);
#189=ORIENTED_EDGE('',*,*,#282,.F.);
#190=ORIENTED_EDGE('',*,*,#276,.T.);
#191=ORIENTED_EDGE('',*,*,#283,.T.);
#192=ORIENTED_EDGE('',*,*,#284,.T.);
#193=ORIENTED_EDGE('',*,*,#285,.T.);
#194=ORIENTED_EDGE('',*,*,#286,.T.);
#195=ORIENTED_EDGE('',*,*,#287,.F.);
#196=ORIENTED_EDGE('',*,*,#288,.F.);
#197=ORIENTED_EDGE('',*,*,#289,.F.);
#198=ORIENTED_EDGE('',*,*,#290,.F.);
#199=ORIENTED_EDGE('',*,*,#280,.T.);
#200=ORIENTED_EDGE('',*,*,#277,.T.);
#201=ORIENTED_EDGE('',*,*,#282,.T.);
#202=ORIENTED_EDGE('',*,*,#273,.T.);
#203=ORIENTED_EDGE('',*,*,#291,.F.);
#204=ORIENTED_EDGE('',*,*,#292,.T.);
#205=ORIENTED_EDGE('',*,*,#293,.T.);
#206=ORIENTED_EDGE('',*,*,#287,.T.);
#207=ORIENTED_EDGE('',*,*,#294,.F.);
#208=ORIENTED_EDGE('',*,*,#295,.T.);
#209=ORIENTED_EDGE('',*,*,#291,.T.);
#210=ORIENTED_EDGE('',*,*,#290,.T.);
#211=ORIENTED_EDGE('',*,*,#296,.F.);
#212=ORIENTED_EDGE('',*,*,#297,.T.);
#213=ORIENTED_EDGE('',*,*,#294,.T.);
#214=ORIENTED_EDGE('',*,*,#289,.T.);
#215=ORIENTED_EDGE('',*,*,#293,.F.);
#216=ORIENTED_EDGE('',*,*,#298,.T.);
#217=ORIENTED_EDGE('',*,*,#296,.T.);
#218=ORIENTED_EDGE('',*,*,#288,.T.);
#219=ORIENTED_EDGE('',*,*,#299,.T.);
#220=ORIENTED_EDGE('',*,*,#300,.T.);
#221=ORIENTED_EDGE('',*,*,#301,.T.);
#222=ORIENTED_EDGE('',*,*,#302,.T.);
#223=ORIENTED_EDGE('',*,*,#295,.F.);
#224=ORIENTED_EDGE('',*,*,#297,.F.);
#225=ORIENTED_EDGE('',*,*,#298,.F.);
#226=ORIENTED_EDGE('',*,*,#292,.F.);
#227=ORIENTED_EDGE('',*,*,#300,.F.);
#228=ORIENTED_EDGE('',*,*,#303,.T.);
#229=ORIENTED_EDGE('',*,*,#283,.F.);
#230=ORIENTED_EDGE('',*,*,#304,.F.);
#231=ORIENTED_EDGE('',*,*,#299,.F.);
#232=ORIENTED_EDGE('',*,*,#305,.T.);
#233=ORIENTED_EDGE('',*,*,#284,.F.);
#234=ORIENTED_EDGE('',*,*,#303,.F.);
#235=ORIENTED_EDGE('',*,*,#302,.F.);
#236=ORIENTED_EDGE('',*,*,#306,.T.);
#237=ORIENTED_EDGE('',*,*,#285,.F.);
#238=ORIENTED_EDGE('',*,*,#305,.F.);
#239=ORIENTED_EDGE('',*,*,#301,.F.);
#240=ORIENTED_EDGE('',*,*,#304,.T.);
#241=ORIENTED_EDGE('',*,*,#286,.F.);
#242=ORIENTED_EDGE('',*,*,#306,.F.);
#243=ORIENTED_EDGE('',*,*,#275,.T.);
#244=ORIENTED_EDGE('',*,*,#279,.T.);
#245=ORIENTED_EDGE('',*,*,#271,.T.);
#246=ORIENTED_EDGE('',*,*,#281,.T.);
#247=VERTEX_POINT('',#468);
#248=VERTEX_POINT('',#469);
#249=VERTEX_POINT('',#471);
#250=VERTEX_POINT('',#473);
#251=VERTEX_POINT('',#477);
#252=VERTEX_POINT('',#478);
#253=VERTEX_POINT('',#480);
#254=VERTEX_POINT('',#482);
#255=VERTEX_POINT('',#492);
#256=VERTEX_POINT('',#493);
#257=VERTEX_POINT('',#495);
#258=VERTEX_POINT('',#497);
#259=VERTEX_POINT('',#501);
#260=VERTEX_POINT('',#502);
#261=VERTEX_POINT('',#504);
#262=VERTEX_POINT('',#506);
#263=VERTEX_POINT('',#510);
#264=VERTEX_POINT('',#512);
#265=VERTEX_POINT('',#516);
#266=VERTEX_POINT('',#520);
#267=VERTEX_POINT('',#526);
#268=VERTEX_POINT('',#527);
#269=VERTEX_POINT('',#529);
#270=VERTEX_POINT('',#531);
#271=EDGE_CURVE('',#247,#248,#307,.T.);
#272=EDGE_CURVE('',#249,#247,#308,.T.);
#273=EDGE_CURVE('',#250,#249,#309,.T.);
#274=EDGE_CURVE('',#250,#248,#310,.T.);
#275=EDGE_CURVE('',#251,#252,#311,.T.);
#276=EDGE_CURVE('',#253,#251,#312,.T.);
#277=EDGE_CURVE('',#254,#253,#313,.T.);
#278=EDGE_CURVE('',#254,#252,#314,.T.);
#279=EDGE_CURVE('',#252,#247,#109,.T.);
#280=EDGE_CURVE('',#249,#254,#110,.T.);
#281=EDGE_CURVE('',#248,#251,#111,.T.);
#282=EDGE_CURVE('',#253,#250,#112,.T.);
#283=EDGE_CURVE('',#255,#256,#315,.T.);
#284=EDGE_CURVE('',#256,#257,#316,.T.);
#285=EDGE_CURVE('',#257,#258,#317,.T.);
#286=EDGE_CURVE('',#258,#255,#318,.T.);
#287=EDGE_CURVE('',#259,#260,#319,.T.);
#288=EDGE_CURVE('',#261,#259,#320,.T.);
#289=EDGE_CURVE('',#262,#261,#321,.T.);
#290=EDGE_CURVE('',#260,#262,#322,.T.);
#291=EDGE_CURVE('',#263,#260,#323,.T.);
#292=EDGE_CURVE('',#263,#264,#324,.T.);
#293=EDGE_CURVE('',#264,#259,#325,.T.);
#294=EDGE_CURVE('',#265,#262,#326,.T.);
#295=EDGE_CURVE('',#265,#263,#327,.T.);
#296=EDGE_CURVE('',#266,#261,#328,.T.);
#297=EDGE_CURVE('',#266,#265,#329,.T.);
#298=EDGE_CURVE('',#264,#266,#330,.T.);
#299=EDGE_CURVE('',#267,#268,#331,.T.);
#300=EDGE_CURVE('',#268,#269,#332,.T.);
#301=EDGE_CURVE('',#269,#270,#333,.T.);
#302=EDGE_CURVE('',#270,#267,#334,.T.);
#303=EDGE_CURVE('',#268,#256,#335,.T.);
#304=EDGE_CURVE('',#269,#255,#336,.T.);
#305=EDGE_CURVE('',#267,#257,#337,.T.);
#306=EDGE_CURVE('',#270,#258,#338,.T.);
#307=LINE('',#467,#339);
#308=LINE('',#470,#340);
#309=LINE('',#472,#341);
#310=LINE('',#474,#342);
#311=LINE('',#476,#343);
#312=LINE('',#479,#344);
#313=LINE('',#481,#345);
#314=LINE('',#483,#346);
#315=LINE('',#491,#347);
#316=LINE('',#494,#348);
#317=LINE('',#496,#349);
#318=LINE('',#498,#350);
#319=LINE('',#500,#351);
#320=LINE('',#503,#352);
#321=LINE('',#505,#353);
#322=LINE('',#507,#354);
#323=LINE('',#509,#355);
#324=LINE('',#511,#356);
#325=LINE('',#513,#357);
#326=LINE('',#515,#358);
#327=LINE('',#517,#359);
#328=LINE('',#519,#360);
#329=LINE('',#521,#361);
#330=LINE('',#523,#362);
#331=LINE('',#525,#363);
#332=LINE('',#528,#364);
#333=LINE('',#530,#365);
#334=LINE('',#532,#366);
#335=LINE('',#534,#367);
#336=LINE('',#535,#368);
#337=LINE('',#537,#369);
#338=LINE('',#539,#370);
#339=VECTOR('',#394,1.);
#340=VECTOR('',#395,1.);
#341=VECTOR('',#396,1.);
#342=VECTOR('',#397,1.);
#343=VECTOR('',#400,1.);
#344=VECTOR('',#401,1.);
#345=VECTOR('',#402,1.);
#346=VECTOR('',#403,1.);
#347=VECTOR('',#418,1.);
#348=VECTOR('',#419,1.);
#349=VECTOR('',#420,1.);
#350=VECTOR('',#421,1.);
#351=VECTOR('',#424,1.);
#352=VECTOR('',#425,1.);
#353=VECTOR('',#426,1.);
#354=VECTOR('',#427,1.);
#355=VECTOR('',#430,1.);
#356=VECTOR('',#431,1.);
#357=VECTOR('',#432,1.);
#358=VECTOR('',#435,1.);
#359=VECTOR('',#436,1.);
#360=VECTOR('',#439,1.);
#361=VECTOR('',#440,1.);
#362=VECTOR('',#443,1.);
#363=VECTOR('',#446,1.);
#364=VECTOR('',#447,1.);
#365=VECTOR('',#448,1.);
#366=VECTOR('',#449,1.);
#367=VECTOR('',#452,1.);
#368=VECTOR('',#453,1.);
#369=VECTOR('',#456,1.);
#370=VECTOR('',#459,1.);
#371=AXIS2_PLACEMENT_3D('',#466,#392,#393);
#372=AXIS2_PLACEMENT_3D('',#475,#398,#399);
#373=AXIS2_PLACEMENT_3D('',#484,#404,#405);
#374=AXIS2_PLACEMENT_3D('',#485,#406,#407);
#375=AXIS2_PLACEMENT_3D('',#486,#408,#409);
#376=AXIS2_PLACEMENT_3D('',#487,#410,#411);
#377=AXIS2_PLACEMENT_3D('',#488,#412,#413);
#378=AXIS2_PLACEMENT_3D('',#489,#414,#415);
#379=AXIS2_PLACEMENT_3D('',#490,#416,#417);
#380=AXIS2_PLACEMENT_3D('',#499,#422,#423);
#381=AXIS2_PLACEMENT_3D('',#508,#428,#429);
#382=AXIS2_PLACEMENT_3D('',#514,#433,#434);
#383=AXIS2_PLACEMENT_3D('',#518,#437,#438);
#384=AXIS2_PLACEMENT_3D('',#522,#441,#442);
#385=AXIS2_PLACEMENT_3D('',#524,#444,#445);
#386=AXIS2_PLACEMENT_3D('',#533,#450,#451);
#387=AXIS2_PLACEMENT_3D('',#536,#454,#455);
#388=AXIS2_PLACEMENT_3D('',#538,#457,#458);
#389=AXIS2_PLACEMENT_3D('',#540,#460,#461);
#390=AXIS2_PLACEMENT_3D('',#541,#462,#463);
#391=AXIS2_PLACEMENT_3D('',#542,#464,#465);
#392=DIRECTION('',(0.,0.,1.));
#393=DIRECTION('',(1.,0.,0.));
#394=DIRECTION('',(0.,1.,-1.90696552323692E-16));
#395=DIRECTION('',(0.999961923064171,1.86315396836606E-17,-0.00872653549837393));
#396=DIRECTION('',(0.,-1.,1.90696552323692E-16));
#397=DIRECTION('',(0.999961923064171,-1.66412023327022E-18,-0.00872653549837393));
#398=DIRECTION('',(0.00872653549837393,1.90689291183306E-16,0.999961923064171));
#399=DIRECTION('',(0.999961923064171,0.,-0.00872653549837393));
#400=DIRECTION('',(0.,-1.,-1.90696552323692E-16));
#401=DIRECTION('',(0.999961923064171,-1.86315396836606E-17,0.00872653549837393));
#402=DIRECTION('',(0.,1.,1.90696552323692E-16));
#403=DIRECTION('',(0.999961923064171,-1.66412023327022E-18,0.00872653549837393));
#404=DIRECTION('',(0.00872653549837393,1.90689291183306E-16,-0.999961923064171));
#405=DIRECTION('',(-0.999961923064171,0.,-0.00872653549837393));
#406=DIRECTION('',(-1.,0.,0.));
#407=DIRECTION('',(0.,0.,1.));
#408=DIRECTION('',(1.,0.,0.));
#409=DIRECTION('',(0.,0.,-1.));
#410=DIRECTION('',(-1.,0.,0.));
#411=DIRECTION('',(0.,0.,1.));
#412=DIRECTION('',(-1.,0.,0.));
#413=DIRECTION('',(0.,0.,1.));
#414=DIRECTION('',(1.,0.,0.));
#415=DIRECTION('',(0.,0.,-1.));
#416=DIRECTION('',(-1.,0.,0.));
#417=DIRECTION('',(0.,0.,1.));
#418=DIRECTION('',(0.,0.,-1.));
#419=DIRECTION('',(0.,1.,0.));
#420=DIRECTION('',(0.,0.,1.));
#421=DIRECTION('',(0.,-1.,0.));
#422=DIRECTION('',(1.,0.,0.));
#423=DIRECTION('',(0.,0.,-1.));
#424=DIRECTION('',(0.,3.48443554623901E-16,-1.));
#425=DIRECTION('',(0.,-1.,0.));
#426=DIRECTION('',(0.,3.48443554623901E-16,1.));
#427=DIRECTION('',(0.,1.,0.));
#428=DIRECTION('',(1.,0.,0.));
#429=DIRECTION('',(0.,0.,-1.));
#430=DIRECTION('',(-0.998782765958718,-0.0348782627423746,-0.0348782627423746));
#431=DIRECTION('',(0.,-3.48443554623901E-16,1.));
#432=DIRECTION('',(-0.998782765958718,-0.0348782627423746,0.0348782627423746));
#433=DIRECTION('',(0.0348994967025009,-0.999390827019096,-3.48231292225054E-16));
#434=DIRECTION('',(0.999390827019096,0.0348994967025009,0.));
#435=DIRECTION('',(-0.998782765958718,0.0348782627423746,-0.0348782627423746));
#436=DIRECTION('',(0.,-1.,0.));
#437=DIRECTION('',(0.0348994967025009,0.,-0.999390827019096));
#438=DIRECTION('',(-0.999390827019096,0.,-0.0348994967025009));
#439=DIRECTION('',(-0.998782765958718,0.0348782627423746,0.0348782627423746));
#440=DIRECTION('',(0.,-3.48443554623901E-16,-1.));
#441=DIRECTION('',(0.0348994967025009,0.999390827019096,-3.48231292225054E-16));
#442=DIRECTION('',(-0.999390827019096,0.0348994967025009,0.));
#443=DIRECTION('',(0.,1.,0.));
#444=DIRECTION('',(0.0348994967025009,0.,0.999390827019096));
#445=DIRECTION('',(0.999390827019096,0.,-0.0348994967025009));
#446=DIRECTION('',(0.,-1.,0.));
#447=DIRECTION('',(0.,0.,1.));
#448=DIRECTION('',(0.,1.,0.));
#449=DIRECTION('',(0.,0.,-1.));
#450=DIRECTION('',(1.,0.,0.));
#451=DIRECTION('',(0.,1.,0.));
#452=DIRECTION('',(1.,0.,0.));
#453=DIRECTION('',(1.,0.,0.));
#454=DIRECTION('',(0.,1.,0.));
#455=DIRECTION('',(0.,0.,1.));
#456=DIRECTION('',(1.,0.,0.));
#457=DIRECTION('',(0.,0.,1.));
#458=DIRECTION('',(1.,0.,0.));
#459=DIRECTION('',(1.,0.,0.));
#460=DIRECTION('',(0.,-1.,0.));
#461=DIRECTION('',(0.,0.,-1.));
#462=DIRECTION('',(0.,0.,-1.));
#463=DIRECTION('',(-1.,0.,0.));
#464=DIRECTION('',(-1.,0.,0.));
#465=DIRECTION('',(0.,0.,1.));
#466=CARTESIAN_POINT('',(0.,0.,0.));
#467=CARTESIAN_POINT('',(1.,6.18099611451715E-16,3.24127313220923));
#468=CARTESIAN_POINT('',(1.,-35.25,3.24127313220921));
#469=CARTESIAN_POINT('',(1.,35.25,3.24127313220923));
#470=CARTESIAN_POINT('',(-2.42200793272356E-16,-35.25,3.24999999999997));
#471=CARTESIAN_POINT('',(0.,-35.25,3.24999999999997));
#472=CARTESIAN_POINT('',(0.,6.19763795051998E-16,3.24999999999999));
#473=CARTESIAN_POINT('',(0.,35.25,3.24999999999999));
#474=CARTESIAN_POINT('',(-7.56834250436336E-18,35.25,3.24999999999999));
#475=CARTESIAN_POINT('',(0.,6.19763795051998E-16,3.24999999999999));
#476=CARTESIAN_POINT('',(1.,6.18099611451718E-16,-3.24127313220926));
#477=CARTESIAN_POINT('',(1.,35.25,-3.24127313220926));
#478=CARTESIAN_POINT('',(1.,-35.25,-3.24127313220927));
#479=CARTESIAN_POINT('',(-7.56877478976111E-18,35.25,-3.25000000000001));
#480=CARTESIAN_POINT('',(0.,35.25,-3.25000000000001));
#481=CARTESIAN_POINT('',(0.,6.19763795052E-16,-3.25000000000002));
#482=CARTESIAN_POINT('',(0.,-35.25,-3.25000000000003));
#483=CARTESIAN_POINT('',(7.56834250436336E-18,-35.25,-3.25000000000003));
#484=CARTESIAN_POINT('',(0.,6.19763795052E-16,-3.25000000000002));
#485=CARTESIAN_POINT('',(1.,-35.25,-2.77555756156289E-14));
#486=CARTESIAN_POINT('',(0.,-35.25,-2.77555756156289E-14));
#487=CARTESIAN_POINT('',(0.,-35.25,-2.77555756156289E-14));
#488=CARTESIAN_POINT('',(1.,35.25,-1.38777878078145E-14));
#489=CARTESIAN_POINT('',(0.,35.25,-1.38777878078145E-14));
#490=CARTESIAN_POINT('',(0.,35.25,-1.38777878078145E-14));
#491=CARTESIAN_POINT('',(17.7,-41.3700158459961,8.65));
#492=CARTESIAN_POINT('',(17.7,-41.3700158459961,8.65));
#493=CARTESIAN_POINT('',(17.7,-41.3700158459961,-8.65));
#494=CARTESIAN_POINT('',(17.7,-41.3700158459961,-8.65));
#495=CARTESIAN_POINT('',(17.7,41.3700158459961,-8.65));
#496=CARTESIAN_POINT('',(17.7,41.3700158459961,-8.65));
#497=CARTESIAN_POINT('',(17.7,41.3700158459961,8.65));
#498=CARTESIAN_POINT('',(17.7,41.3700158459961,8.65));
#499=CARTESIAN_POINT('',(17.7,0.,0.));
#500=CARTESIAN_POINT('',(0.,-42.677,9.95698415399999));
#501=CARTESIAN_POINT('',(0.,-42.677,9.95698415399999));
#502=CARTESIAN_POINT('',(0.,-42.677,-9.95698415400001));
#503=CARTESIAN_POINT('',(0.,42.677,9.95698415399999));
#504=CARTESIAN_POINT('',(0.,42.677,9.95698415399999));
#505=CARTESIAN_POINT('',(0.,42.677,-9.95698415400001));
#506=CARTESIAN_POINT('',(0.,42.677,-9.95698415400001));
#507=CARTESIAN_POINT('',(0.,-42.677,-9.95698415400001));
#508=CARTESIAN_POINT('',(0.,0.,0.));
#509=CARTESIAN_POINT('',(0.,-42.677,-9.95698415400001));
#510=CARTESIAN_POINT('',(16.5,-42.1008073033862,-9.38079145738617));
#511=CARTESIAN_POINT('',(16.5,-42.1008073033862,9.95698415399999));
#512=CARTESIAN_POINT('',(16.5,-42.1008073033861,9.38079145738615));
#513=CARTESIAN_POINT('',(0.,-42.677,9.95698415399999));
#514=CARTESIAN_POINT('',(0.,-42.677,9.95698415399999));
#515=CARTESIAN_POINT('',(0.,42.677,-9.95698415400001));
#516=CARTESIAN_POINT('',(16.5,42.1008073033862,-9.38079145738617));
#517=CARTESIAN_POINT('',(16.5,-42.677,-9.38079145738617));
#518=CARTESIAN_POINT('',(0.,-42.677,-9.95698415400001));
#519=CARTESIAN_POINT('',(0.,42.677,9.95698415399999));
#520=CARTESIAN_POINT('',(16.5,42.1008073033862,9.38079145738615));
#521=CARTESIAN_POINT('',(16.5,42.1008073033862,-9.95698415400001));
#522=CARTESIAN_POINT('',(0.,42.677,-9.95698415400001));
#523=CARTESIAN_POINT('',(16.5,42.677,9.38079145738615));
#524=CARTESIAN_POINT('',(0.,42.677,9.95698415399999));
#525=CARTESIAN_POINT('',(16.5,-41.3700158459961,-8.65));
#526=CARTESIAN_POINT('',(16.5,41.3700158459961,-8.65));
#527=CARTESIAN_POINT('',(16.5,-41.3700158459961,-8.65));
#528=CARTESIAN_POINT('',(16.5,-41.3700158459961,8.65));
#529=CARTESIAN_POINT('',(16.5,-41.3700158459961,8.65));
#530=CARTESIAN_POINT('',(16.5,41.3700158459961,8.65));
#531=CARTESIAN_POINT('',(16.5,41.3700158459961,8.65));
#532=CARTESIAN_POINT('',(16.5,41.3700158459961,-8.65));
#533=CARTESIAN_POINT('',(16.5,-41.3700158459961,-8.65));
#534=CARTESIAN_POINT('',(17.7,-41.3700158459961,-8.65));
#535=CARTESIAN_POINT('',(17.7,-41.3700158459961,8.65));
#536=CARTESIAN_POINT('',(17.7,-41.3700158459961,8.65));
#537=CARTESIAN_POINT('',(17.7,41.3700158459961,-8.65));
#538=CARTESIAN_POINT('',(17.7,-41.3700158459961,-8.65));
#539=CARTESIAN_POINT('',(17.7,41.3700158459961,8.65));
#540=CARTESIAN_POINT('',(17.7,41.3700158459961,-8.65));
#541=CARTESIAN_POINT('',(17.7,41.3700158459961,8.65));
#542=CARTESIAN_POINT('',(1.,0.,0.));
#543=(
GEOMETRIC_REPRESENTATION_CONTEXT(3)
GLOBAL_UNCERTAINTY_ASSIGNED_CONTEXT((#544))
GLOBAL_UNIT_ASSIGNED_CONTEXT((#550,#546,#545))
REPRESENTATION_CONTEXT('KDS-DE-FB3-A','TOP_LEVEL_ASSEMBLY_PART')
);
#544=UNCERTAINTY_MEASURE_WITH_UNIT(LENGTH_MEASURE(2.E-5),#550,
'DISTANCE_ACCURACY_VALUE','Maximum Tolerance applied to model');
#545=(
NAMED_UNIT(*)
SI_UNIT($,.STERADIAN.)
SOLID_ANGLE_UNIT()
);
#546=(
CONVERSION_BASED_UNIT('DEGREE',#548)
NAMED_UNIT(#547)
PLANE_ANGLE_UNIT()
);
#547=DIMENSIONAL_EXPONENTS(0.,0.,0.,0.,0.,0.,0.);
#548=PLANE_ANGLE_MEASURE_WITH_UNIT(PLANE_ANGLE_MEASURE(0.0174532925),#549);
#549=(
NAMED_UNIT(*)
PLANE_ANGLE_UNIT()
SI_UNIT($,.RADIAN.)
);
#550=(
LENGTH_UNIT()
NAMED_UNIT(*)
SI_UNIT(.MILLI.,.METRE.)
);
ENDSEC;
END-ISO-10303-21;
