ISO-10303-21;
HEADER;
/* Generated by software containing ST-Developer
 * from STEP Tools, Inc. (www.steptools.com) 
 */
/* OPTION: using custom schema-name function */

FILE_DESCRIPTION(
/* description */ (''),
/* implementation_level */ '2;1');

FILE_NAME(
/* name */ '28531.4_28572.6_KDS-DE_11-12.stp',
/* time_stamp */ '2018-10-18T09:24:19+02:00',
/* author */ (''),
/* organization */ (''),
/* preprocessor_version */ 'ST-DEVELOPER v16.7',
/* originating_system */ 'SIEMENS PLM Software NX 12.0',
/* authorisation */ '');

FILE_SCHEMA (('AUTOMOTIVE_DESIGN { 1 0 10303 214 3 1 1 1 }'));
ENDSEC;

DATA;
#10=SHAPE_REPRESENTATION_RELATIONSHIP('None',
'relationship between 28531.4_28572.6_KDS-DE_11-12-None and KDS-DE_1,5_Kunde
n_Info-None',#22,#11);
#11=ADVANCED_BREP_SHAPE_REPRESENTATION('28531.4_28572.6_KDS-DE_11-12-None',(#32),
#363);
#12=SHAPE_DEFINITION_REPRESENTATION(#13,#22);
#13=PRODUCT_DEFINITION_SHAPE('','',#14);
#14=PRODUCT_DEFINITION(' ','',#16,#15);
#15=PRODUCT_DEFINITION_CONTEXT('part definition',#21,'design');
#16=PRODUCT_DEFINITION_FORMATION_WITH_SPECIFIED_SOURCE(' ',' ',#18,
 .NOT_KNOWN.);
#17=PRODUCT_RELATED_PRODUCT_CATEGORY('part','',(#18));
#18=PRODUCT('28531.4_28572.6_KDS-DE_11-12','28531.4_28572.6_KDS-DE_11-12',' ',(#19));
#19=PRODUCT_CONTEXT(' ',#21,'mechanical');
#20=APPLICATION_PROTOCOL_DEFINITION('international standard',
'automotive_design',2010,#21);
#21=APPLICATION_CONTEXT(
'core data for automotive mechanical design processes');
#22=SHAPE_REPRESENTATION('28531.4_28572.6_KDS-DE_11-12-None',(#236),#363);
#23=PRESENTATION_LAYER_ASSIGNMENT('1','Layer 1',(#32));
#24=STYLED_ITEM('',(#25),#32);
#25=PRESENTATION_STYLE_ASSIGNMENT((#26));
#26=SURFACE_STYLE_USAGE(.BOTH.,#27);
#27=SURFACE_SIDE_STYLE('',(#28));
#28=SURFACE_STYLE_FILL_AREA(#29);
#29=FILL_AREA_STYLE('',(#30));
#30=FILL_AREA_STYLE_COLOUR('',#31);
#31=COLOUR_RGB('Mittleres Stahlblau',0.596063172350652,0.666666666666667,
0.686259250782025);
#32=MANIFOLD_SOLID_BREP('',#33);
#33=CLOSED_SHELL('',(#43,#44,#45,#46,#47,#48,#49,#50,#51,#52,#53,#54));
#34=CYLINDRICAL_SURFACE('',#250,5.5);
#35=FACE_OUTER_BOUND('',#126,.T.);
#36=FACE_OUTER_BOUND('',#127,.T.);
#37=FACE_OUTER_BOUND('',#128,.T.);
#38=FACE_OUTER_BOUND('',#131,.T.);
#39=FACE_OUTER_BOUND('',#132,.T.);
#40=FACE_OUTER_BOUND('',#133,.T.);
#41=FACE_OUTER_BOUND('',#134,.T.);
#42=FACE_OUTER_BOUND('',#135,.T.);
#43=ADVANCED_FACE('',(#114,#115),#55,.T.);
#44=ADVANCED_FACE('',(#116,#117),#56,.T.);
#45=ADVANCED_FACE('',(#35),#57,.T.);
#46=ADVANCED_FACE('',(#36),#58,.T.);
#47=ADVANCED_FACE('',(#37),#59,.T.);
#48=ADVANCED_FACE('',(#118,#119),#60,.T.);
#49=ADVANCED_FACE('',(#38),#61,.T.);
#50=ADVANCED_FACE('',(#39),#62,.F.);
#51=ADVANCED_FACE('',(#40),#63,.F.);
#52=ADVANCED_FACE('',(#41),#64,.F.);
#53=ADVANCED_FACE('',(#42),#65,.F.);
#54=ADVANCED_FACE('',(#120,#121),#34,.F.);
#55=PLANE('',#238);
#56=PLANE('',#240);
#57=PLANE('',#241);
#58=PLANE('',#242);
#59=PLANE('',#243);
#60=PLANE('',#244);
#61=PLANE('',#245);
#62=PLANE('',#246);
#63=PLANE('',#247);
#64=PLANE('',#248);
#65=PLANE('',#249);
#66=LINE('',#308,#90);
#67=LINE('',#311,#91);
#68=LINE('',#313,#92);
#69=LINE('',#315,#93);
#70=LINE('',#319,#94);
#71=LINE('',#322,#95);
#72=LINE('',#324,#96);
#73=LINE('',#326,#97);
#74=LINE('',#328,#98);
#75=LINE('',#330,#99);
#76=LINE('',#332,#100);
#77=LINE('',#334,#101);
#78=LINE('',#336,#102);
#79=LINE('',#338,#103);
#80=LINE('',#340,#104);
#81=LINE('',#342,#105);
#82=LINE('',#344,#106);
#83=LINE('',#346,#107);
#84=LINE('',#347,#108);
#85=LINE('',#348,#109);
#86=LINE('',#350,#110);
#87=LINE('',#352,#111);
#88=LINE('',#354,#112);
#89=LINE('',#355,#113);
#90=VECTOR('',#255,1.);
#91=VECTOR('',#256,1.);
#92=VECTOR('',#257,1.);
#93=VECTOR('',#258,1.);
#94=VECTOR('',#263,1.);
#95=VECTOR('',#264,1.);
#96=VECTOR('',#265,1.);
#97=VECTOR('',#266,1.);
#98=VECTOR('',#269,1.);
#99=VECTOR('',#270,1.);
#100=VECTOR('',#271,1.);
#101=VECTOR('',#274,1.);
#102=VECTOR('',#275,1.);
#103=VECTOR('',#276,1.);
#104=VECTOR('',#279,1.);
#105=VECTOR('',#280,1.);
#106=VECTOR('',#281,1.);
#107=VECTOR('',#284,1.);
#108=VECTOR('',#285,1.);
#109=VECTOR('',#286,1.);
#110=VECTOR('',#287,1.);
#111=VECTOR('',#288,1.);
#112=VECTOR('',#291,1.);
#113=VECTOR('',#292,1.);
#114=FACE_BOUND('',#122,.T.);
#115=FACE_BOUND('',#123,.T.);
#116=FACE_BOUND('',#124,.T.);
#117=FACE_BOUND('',#125,.T.);
#118=FACE_BOUND('',#129,.T.);
#119=FACE_BOUND('',#130,.T.);
#120=FACE_BOUND('',#136,.T.);
#121=FACE_BOUND('',#137,.T.);
#122=EDGE_LOOP('',(#138));
#123=EDGE_LOOP('',(#139,#140,#141,#142));
#124=EDGE_LOOP('',(#143));
#125=EDGE_LOOP('',(#144,#145,#146,#147));
#126=EDGE_LOOP('',(#148,#149,#150,#151));
#127=EDGE_LOOP('',(#152,#153,#154,#155));
#128=EDGE_LOOP('',(#156,#157,#158,#159));
#129=EDGE_LOOP('',(#160,#161,#162,#163));
#130=EDGE_LOOP('',(#164,#165,#166,#167));
#131=EDGE_LOOP('',(#168,#169,#170,#171));
#132=EDGE_LOOP('',(#172,#173,#174,#175));
#133=EDGE_LOOP('',(#176,#177,#178,#179));
#134=EDGE_LOOP('',(#180,#181,#182,#183));
#135=EDGE_LOOP('',(#184,#185,#186,#187));
#136=EDGE_LOOP('',(#188));
#137=EDGE_LOOP('',(#189));
#138=ORIENTED_EDGE('',*,*,#208,.F.);
#139=ORIENTED_EDGE('',*,*,#209,.F.);
#140=ORIENTED_EDGE('',*,*,#210,.T.);
#141=ORIENTED_EDGE('',*,*,#211,.T.);
#142=ORIENTED_EDGE('',*,*,#212,.F.);
#143=ORIENTED_EDGE('',*,*,#213,.T.);
#144=ORIENTED_EDGE('',*,*,#214,.F.);
#145=ORIENTED_EDGE('',*,*,#215,.F.);
#146=ORIENTED_EDGE('',*,*,#216,.T.);
#147=ORIENTED_EDGE('',*,*,#217,.T.);
#148=ORIENTED_EDGE('',*,*,#218,.F.);
#149=ORIENTED_EDGE('',*,*,#210,.F.);
#150=ORIENTED_EDGE('',*,*,#219,.F.);
#151=ORIENTED_EDGE('',*,*,#220,.T.);
#152=ORIENTED_EDGE('',*,*,#221,.F.);
#153=ORIENTED_EDGE('',*,*,#215,.T.);
#154=ORIENTED_EDGE('',*,*,#222,.F.);
#155=ORIENTED_EDGE('',*,*,#223,.F.);
#156=ORIENTED_EDGE('',*,*,#224,.F.);
#157=ORIENTED_EDGE('',*,*,#225,.T.);
#158=ORIENTED_EDGE('',*,*,#226,.F.);
#159=ORIENTED_EDGE('',*,*,#217,.F.);
#160=ORIENTED_EDGE('',*,*,#227,.F.);
#161=ORIENTED_EDGE('',*,*,#223,.T.);
#162=ORIENTED_EDGE('',*,*,#228,.T.);
#163=ORIENTED_EDGE('',*,*,#225,.F.);
#164=ORIENTED_EDGE('',*,*,#220,.F.);
#165=ORIENTED_EDGE('',*,*,#229,.T.);
#166=ORIENTED_EDGE('',*,*,#230,.T.);
#167=ORIENTED_EDGE('',*,*,#231,.F.);
#168=ORIENTED_EDGE('',*,*,#232,.F.);
#169=ORIENTED_EDGE('',*,*,#212,.T.);
#170=ORIENTED_EDGE('',*,*,#233,.F.);
#171=ORIENTED_EDGE('',*,*,#230,.F.);
#172=ORIENTED_EDGE('',*,*,#216,.F.);
#173=ORIENTED_EDGE('',*,*,#221,.T.);
#174=ORIENTED_EDGE('',*,*,#227,.T.);
#175=ORIENTED_EDGE('',*,*,#224,.T.);
#176=ORIENTED_EDGE('',*,*,#209,.T.);
#177=ORIENTED_EDGE('',*,*,#232,.T.);
#178=ORIENTED_EDGE('',*,*,#229,.F.);
#179=ORIENTED_EDGE('',*,*,#219,.T.);
#180=ORIENTED_EDGE('',*,*,#218,.T.);
#181=ORIENTED_EDGE('',*,*,#231,.T.);
#182=ORIENTED_EDGE('',*,*,#233,.T.);
#183=ORIENTED_EDGE('',*,*,#211,.F.);
#184=ORIENTED_EDGE('',*,*,#228,.F.);
#185=ORIENTED_EDGE('',*,*,#222,.T.);
#186=ORIENTED_EDGE('',*,*,#214,.T.);
#187=ORIENTED_EDGE('',*,*,#226,.T.);
#188=ORIENTED_EDGE('',*,*,#208,.T.);
#189=ORIENTED_EDGE('',*,*,#213,.F.);
#190=VERTEX_POINT('',#307);
#191=VERTEX_POINT('',#309);
#192=VERTEX_POINT('',#310);
#193=VERTEX_POINT('',#312);
#194=VERTEX_POINT('',#314);
#195=VERTEX_POINT('',#318);
#196=VERTEX_POINT('',#320);
#197=VERTEX_POINT('',#321);
#198=VERTEX_POINT('',#323);
#199=VERTEX_POINT('',#325);
#200=VERTEX_POINT('',#329);
#201=VERTEX_POINT('',#331);
#202=VERTEX_POINT('',#335);
#203=VERTEX_POINT('',#337);
#204=VERTEX_POINT('',#341);
#205=VERTEX_POINT('',#343);
#206=VERTEX_POINT('',#349);
#207=VERTEX_POINT('',#351);
#208=EDGE_CURVE('',#190,#190,#234,.T.);
#209=EDGE_CURVE('',#191,#192,#66,.T.);
#210=EDGE_CURVE('',#191,#193,#67,.T.);
#211=EDGE_CURVE('',#193,#194,#68,.T.);
#212=EDGE_CURVE('',#192,#194,#69,.T.);
#213=EDGE_CURVE('',#195,#195,#235,.T.);
#214=EDGE_CURVE('',#196,#197,#70,.T.);
#215=EDGE_CURVE('',#198,#196,#71,.T.);
#216=EDGE_CURVE('',#198,#199,#72,.T.);
#217=EDGE_CURVE('',#199,#197,#73,.T.);
#218=EDGE_CURVE('',#193,#200,#74,.T.);
#219=EDGE_CURVE('',#201,#191,#75,.T.);
#220=EDGE_CURVE('',#201,#200,#76,.T.);
#221=EDGE_CURVE('',#198,#202,#77,.T.);
#222=EDGE_CURVE('',#203,#196,#78,.T.);
#223=EDGE_CURVE('',#202,#203,#79,.T.);
#224=EDGE_CURVE('',#204,#199,#80,.T.);
#225=EDGE_CURVE('',#204,#205,#81,.T.);
#226=EDGE_CURVE('',#197,#205,#82,.T.);
#227=EDGE_CURVE('',#202,#204,#83,.T.);
#228=EDGE_CURVE('',#203,#205,#84,.T.);
#229=EDGE_CURVE('',#201,#206,#85,.T.);
#230=EDGE_CURVE('',#206,#207,#86,.T.);
#231=EDGE_CURVE('',#200,#207,#87,.T.);
#232=EDGE_CURVE('',#192,#206,#88,.T.);
#233=EDGE_CURVE('',#207,#194,#89,.T.);
#234=CIRCLE('',#237,5.5);
#235=CIRCLE('',#239,5.5);
#236=AXIS2_PLACEMENT_3D('',#305,#251,#252);
#237=AXIS2_PLACEMENT_3D('',#306,#253,#254);
#238=AXIS2_PLACEMENT_3D('',#316,#259,#260);
#239=AXIS2_PLACEMENT_3D('',#317,#261,#262);
#240=AXIS2_PLACEMENT_3D('',#327,#267,#268);
#241=AXIS2_PLACEMENT_3D('',#333,#272,#273);
#242=AXIS2_PLACEMENT_3D('',#339,#277,#278);
#243=AXIS2_PLACEMENT_3D('',#345,#282,#283);
#244=AXIS2_PLACEMENT_3D('',#353,#289,#290);
#245=AXIS2_PLACEMENT_3D('',#356,#293,#294);
#246=AXIS2_PLACEMENT_3D('',#357,#295,#296);
#247=AXIS2_PLACEMENT_3D('',#358,#297,#298);
#248=AXIS2_PLACEMENT_3D('',#359,#299,#300);
#249=AXIS2_PLACEMENT_3D('',#360,#301,#302);
#250=AXIS2_PLACEMENT_3D('',#361,#303,#304);
#251=DIRECTION('',(0.,0.,1.));
#252=DIRECTION('',(1.,0.,0.));
#253=DIRECTION('',(0.,0.,-1.));
#254=DIRECTION('',(-1.,0.,0.));
#255=DIRECTION('',(-1.,0.,0.));
#256=DIRECTION('',(0.,-1.,0.));
#257=DIRECTION('',(-1.,0.,0.));
#258=DIRECTION('',(0.,-1.,0.));
#259=DIRECTION('',(0.,0.,-1.));
#260=DIRECTION('',(1.,0.,0.));
#261=DIRECTION('',(0.,0.,-1.));
#262=DIRECTION('',(-1.,0.,0.));
#263=DIRECTION('',(-1.,0.,0.));
#264=DIRECTION('',(0.,-1.,0.));
#265=DIRECTION('',(-1.,0.,0.));
#266=DIRECTION('',(0.,-1.,0.));
#267=DIRECTION('',(0.,0.,1.));
#268=DIRECTION('',(-1.,0.,0.));
#269=DIRECTION('',(-0.0348782627423735,0.034878262742374,0.998782765958718));
#270=DIRECTION('',(0.0348782627423735,0.0348782627423734,-0.998782765958718));
#271=DIRECTION('',(0.,-1.,0.));
#272=DIRECTION('',(0.999390827019096,0.,0.0348994967024999));
#273=DIRECTION('',(-0.0348994967024999,0.,0.999390827019096));
#274=DIRECTION('',(0.,0.,-1.));
#275=DIRECTION('',(0.,0.,1.));
#276=DIRECTION('',(0.,-1.,0.));
#277=DIRECTION('',(1.,0.,0.));
#278=DIRECTION('',(0.,0.,1.));
#279=DIRECTION('',(0.,0.,1.));
#280=DIRECTION('',(0.,-1.,0.));
#281=DIRECTION('',(0.,0.,-1.));
#282=DIRECTION('',(-1.,0.,0.));
#283=DIRECTION('',(0.,0.,-1.));
#284=DIRECTION('',(-1.,0.,0.));
#285=DIRECTION('',(-1.,0.,0.));
#286=DIRECTION('',(-1.,0.,0.));
#287=DIRECTION('',(0.,-1.,0.));
#288=DIRECTION('',(-1.,0.,0.));
#289=DIRECTION('',(0.,0.,1.));
#290=DIRECTION('',(-1.,0.,0.));
#291=DIRECTION('',(0.0348782627423735,-0.034878262742374,0.998782765958718));
#292=DIRECTION('',(-0.0348782627423734,-0.0348782627423745,-0.998782765958718));
#293=DIRECTION('',(-0.999390827019096,0.,0.0348994967024998));
#294=DIRECTION('',(-0.0348994967024998,0.,-0.999390827019096));
#295=DIRECTION('',(0.,-1.,0.));
#296=DIRECTION('',(0.,0.,1.));
#297=DIRECTION('',(0.,-0.999390827019096,-0.0348994967024997));
#298=DIRECTION('',(0.,-0.0348994967024997,0.999390827019096));
#299=DIRECTION('',(0.,0.999390827019096,-0.0348994967025009));
#300=DIRECTION('',(0.,-0.0348994967025009,-0.999390827019096));
#301=DIRECTION('',(0.,1.,0.));
#302=DIRECTION('',(0.,0.,-1.));
#303=DIRECTION('',(0.,0.,-1.));
#304=DIRECTION('',(-1.,0.,0.));
#305=CARTESIAN_POINT('',(0.,0.,0.));
#306=CARTESIAN_POINT('',(0.,1.54074395550979E-33,-0.199999999999999));
#307=CARTESIAN_POINT('',(-5.5,1.54074395550979E-33,-0.199999999999999));
#308=CARTESIAN_POINT('',(11.,9.95698415389909,-0.2));
#309=CARTESIAN_POINT('',(9.95698415389835,9.95698415389835,-0.2));
#310=CARTESIAN_POINT('',(-9.95698415389872,9.95698415389835,-0.200000000000013));
#311=CARTESIAN_POINT('',(9.95698415389835,11.,-0.2));
#312=CARTESIAN_POINT('',(9.95698415389835,-9.95698415389835,-0.2));
#313=CARTESIAN_POINT('',(11.,-9.95698415389835,-0.200000000000013));
#314=CARTESIAN_POINT('',(-9.95698415389835,-9.95698415389835,-0.200000000000012));
#315=CARTESIAN_POINT('',(-9.95698415389909,11.,-0.2));
#316=CARTESIAN_POINT('',(-9.95698415389909,11.,-0.2));
#317=CARTESIAN_POINT('',(0.,1.54074395550979E-33,17.5));
#318=CARTESIAN_POINT('',(-5.5,1.54074395550979E-33,17.5));
#319=CARTESIAN_POINT('',(11.,-8.75,17.5));
#320=CARTESIAN_POINT('',(8.75,-8.75,17.5));
#321=CARTESIAN_POINT('',(-8.75,-8.75,17.5));
#322=CARTESIAN_POINT('',(8.75,11.,17.5));
#323=CARTESIAN_POINT('',(8.75,8.75,17.5));
#324=CARTESIAN_POINT('',(11.,8.75,17.5));
#325=CARTESIAN_POINT('',(-8.75,8.75,17.5));
#326=CARTESIAN_POINT('',(-8.75,11.,17.5));
#327=CARTESIAN_POINT('',(8.75,11.,17.5));
#328=CARTESIAN_POINT('',(9.93149012493269,-9.93149012493269,0.530053470662617));
#329=CARTESIAN_POINT('',(9.38079145728453,-9.38079145728452,16.3));
#330=CARTESIAN_POINT('',(9.95825297559506,9.95825297559506,-0.236334299477974));
#331=CARTESIAN_POINT('',(9.38079145728453,9.38079145728454,16.3));
#332=CARTESIAN_POINT('',(9.38079145728453,11.,16.3));
#333=CARTESIAN_POINT('',(9.95698415389835,11.,-0.200000000000013));
#334=CARTESIAN_POINT('',(8.75,8.75,16.45));
#335=CARTESIAN_POINT('',(8.75,8.75,16.3));
#336=CARTESIAN_POINT('',(8.75,-8.75,16.45));
#337=CARTESIAN_POINT('',(8.75,-8.75,16.3));
#338=CARTESIAN_POINT('',(8.75,11.,16.3));
#339=CARTESIAN_POINT('',(8.75,11.,16.45));
#340=CARTESIAN_POINT('',(-8.75,8.75,17.5));
#341=CARTESIAN_POINT('',(-8.75,8.75,16.3));
#342=CARTESIAN_POINT('',(-8.75,11.,16.3));
#343=CARTESIAN_POINT('',(-8.75,-8.75,16.3));
#344=CARTESIAN_POINT('',(-8.75,-8.75,17.5));
#345=CARTESIAN_POINT('',(-8.75,11.,17.5));
#346=CARTESIAN_POINT('',(11.,8.75,16.3));
#347=CARTESIAN_POINT('',(-8.899999999999,-8.75,16.3));
#348=CARTESIAN_POINT('',(11.,9.38079145728454,16.3));
#349=CARTESIAN_POINT('',(-9.38079145728453,9.38079145728454,16.3));
#350=CARTESIAN_POINT('',(-9.38079145728453,11.,16.3));
#351=CARTESIAN_POINT('',(-9.38079145728453,-9.38079145728452,16.3));
#352=CARTESIAN_POINT('',(-8.899999999999,-9.38079145728452,16.3));
#353=CARTESIAN_POINT('',(-8.899999999999,11.,16.3));
#354=CARTESIAN_POINT('',(-9.69454853863821,9.6945485386382,7.3151727490475));
#355=CARTESIAN_POINT('',(-9.66778568797583,-9.66778568797583,8.08156051918811));
#356=CARTESIAN_POINT('',(-9.69295853156415,11.,7.36070459434186));
#357=CARTESIAN_POINT('',(11.,8.75,16.45));
#358=CARTESIAN_POINT('',(11.,9.95698415389835,-0.200000000000026));
#359=CARTESIAN_POINT('',(11.,-9.69295853156415,7.36070459434186));
#360=CARTESIAN_POINT('',(11.,-8.75,17.5));
#361=CARTESIAN_POINT('',(0.,1.54074395550979E-33,17.5));
#362=MECHANICAL_DESIGN_GEOMETRIC_PRESENTATION_REPRESENTATION('',(#24),#363);
#363=(
GEOMETRIC_REPRESENTATION_CONTEXT(3)
GLOBAL_UNCERTAINTY_ASSIGNED_CONTEXT((#364))
GLOBAL_UNIT_ASSIGNED_CONTEXT((#370,#366,#365))
REPRESENTATION_CONTEXT('KDS-DE_11-12_Kunden_Info',
'TOP_LEVEL_ASSEMBLY_PART')
);
#364=UNCERTAINTY_MEASURE_WITH_UNIT(LENGTH_MEASURE(2.E-5),#370,
'DISTANCE_ACCURACY_VALUE','Maximum Tolerance applied to model');
#365=(
NAMED_UNIT(*)
SI_UNIT($,.STERADIAN.)
SOLID_ANGLE_UNIT()
);
#366=(
CONVERSION_BASED_UNIT('DEGREE',#368)
NAMED_UNIT(#367)
PLANE_ANGLE_UNIT()
);
#367=DIMENSIONAL_EXPONENTS(0.,0.,0.,0.,0.,0.,0.);
#368=PLANE_ANGLE_MEASURE_WITH_UNIT(PLANE_ANGLE_MEASURE(0.0174532925),#369);
#369=(
NAMED_UNIT(*)
PLANE_ANGLE_UNIT()
SI_UNIT($,.RADIAN.)
);
#370=(
LENGTH_UNIT()
NAMED_UNIT(*)
SI_UNIT(.MILLI.,.METRE.)
);
ENDSEC;
END-ISO-10303-21;
