ISO-10303-21;
HEADER;
/* Generated by software containing ST-Developer
 * from STEP Tools, Inc. (www.steptools.com) 
 */
/* OPTION: using custom schema-name function */

FILE_DESCRIPTION(
/* description */ (''),
/* implementation_level */ '2;1');

FILE_NAME(
/* name */ '28530.4_28571.6_KDS-DE_10-11.stp',
/* time_stamp */ '2019-05-22T12:25:13+02:00',
/* author */ (''),
/* organization */ (''),
/* preprocessor_version */ 'ST-DEVELOPER v16.7',
/* originating_system */ 'SIEMENS PLM Software NX 12.0',
/* authorisation */ '');

FILE_SCHEMA (('AUTOMOTIVE_DESIGN { 1 0 10303 214 3 1 1 1 }'));
ENDSEC;

DATA;
#10=PROPERTY_DEFINITION_REPRESENTATION(#14,#12);
#11=PROPERTY_DEFINITION_REPRESENTATION(#15,#13);
#12=REPRESENTATION('',(#16),#371);
#13=REPRESENTATION('',(#17),#371);
#14=PROPERTY_DEFINITION('pmi validation property','',#21);
#15=PROPERTY_DEFINITION('pmi validation property','',#21);
#16=VALUE_REPRESENTATION_ITEM('number of annotations',COUNT_MEASURE(0.));
#17=VALUE_REPRESENTATION_ITEM('number of views',COUNT_MEASURE(0.));
#18=SHAPE_REPRESENTATION_RELATIONSHIP('None',
'relationship between 28530.4_28571.6_KDS-DE_10-11-None and 28530.4_28571.6_KDS-DE_10-11-None',
#30,#19);
#19=ADVANCED_BREP_SHAPE_REPRESENTATION('28530.4_28571.6_KDS-DE_10-11-None',(#40),#371);
#20=SHAPE_DEFINITION_REPRESENTATION(#21,#30);
#21=PRODUCT_DEFINITION_SHAPE('','',#22);
#22=PRODUCT_DEFINITION(' ','',#24,#23);
#23=PRODUCT_DEFINITION_CONTEXT('part definition',#29,'design');
#24=PRODUCT_DEFINITION_FORMATION_WITH_SPECIFIED_SOURCE(' ',' ',#26,
 .NOT_KNOWN.);
#25=PRODUCT_RELATED_PRODUCT_CATEGORY('part','',(#26));
#26=PRODUCT('28530.4_28571.6_KDS-DE_10-11','28530.4_28571.6_KDS-DE_10-11',' ',(#27));
#27=PRODUCT_CONTEXT(' ',#29,'mechanical');
#28=APPLICATION_PROTOCOL_DEFINITION('international standard',
'automotive_design',2010,#29);
#29=APPLICATION_CONTEXT(
'core data for automotive mechanical design processes');
#30=SHAPE_REPRESENTATION('28530.4_28571.6_KDS-DE_10-11-None',(#244),#371);
#31=PRESENTATION_LAYER_ASSIGNMENT('1','Layer 1',(#40));
#32=STYLED_ITEM('',(#33),#40);
#33=PRESENTATION_STYLE_ASSIGNMENT((#34));
#34=SURFACE_STYLE_USAGE(.BOTH.,#35);
#35=SURFACE_SIDE_STYLE('',(#36));
#36=SURFACE_STYLE_FILL_AREA(#37);
#37=FILL_AREA_STYLE('',(#38));
#38=FILL_AREA_STYLE_COLOUR('',#39);
#39=COLOUR_RGB('Medium Steel',0.596063172350652,0.666666666666667,0.686259250782025);
#40=MANIFOLD_SOLID_BREP('',#41);
#41=CLOSED_SHELL('',(#51,#52,#53,#54,#55,#56,#57,#58,#59,#60,#61,#62));
#42=CYLINDRICAL_SURFACE('',#258,5.4575);
#43=FACE_OUTER_BOUND('',#88,.T.);
#44=FACE_OUTER_BOUND('',#89,.T.);
#45=FACE_OUTER_BOUND('',#90,.T.);
#46=FACE_OUTER_BOUND('',#93,.T.);
#47=FACE_OUTER_BOUND('',#94,.T.);
#48=FACE_OUTER_BOUND('',#95,.T.);
#49=FACE_OUTER_BOUND('',#96,.T.);
#50=FACE_OUTER_BOUND('',#97,.T.);
#51=ADVANCED_FACE('',(#76,#77),#63,.T.);
#52=ADVANCED_FACE('',(#78,#79),#64,.T.);
#53=ADVANCED_FACE('',(#43),#65,.T.);
#54=ADVANCED_FACE('',(#44),#66,.T.);
#55=ADVANCED_FACE('',(#45),#67,.T.);
#56=ADVANCED_FACE('',(#80,#81),#68,.T.);
#57=ADVANCED_FACE('',(#46),#69,.T.);
#58=ADVANCED_FACE('',(#47),#70,.F.);
#59=ADVANCED_FACE('',(#48),#71,.F.);
#60=ADVANCED_FACE('',(#49),#72,.F.);
#61=ADVANCED_FACE('',(#50),#73,.F.);
#62=ADVANCED_FACE('',(#82,#83),#42,.F.);
#63=PLANE('',#246);
#64=PLANE('',#248);
#65=PLANE('',#249);
#66=PLANE('',#250);
#67=PLANE('',#251);
#68=PLANE('',#252);
#69=PLANE('',#253);
#70=PLANE('',#254);
#71=PLANE('',#255);
#72=PLANE('',#256);
#73=PLANE('',#257);
#74=CIRCLE('',#245,5.4575);
#75=CIRCLE('',#247,5.4575);
#76=FACE_BOUND('',#84,.T.);
#77=FACE_BOUND('',#85,.T.);
#78=FACE_BOUND('',#86,.T.);
#79=FACE_BOUND('',#87,.T.);
#80=FACE_BOUND('',#91,.T.);
#81=FACE_BOUND('',#92,.T.);
#82=FACE_BOUND('',#98,.T.);
#83=FACE_BOUND('',#99,.T.);
#84=EDGE_LOOP('',(#100,#101,#102,#103));
#85=EDGE_LOOP('',(#104));
#86=EDGE_LOOP('',(#105));
#87=EDGE_LOOP('',(#106,#107,#108,#109));
#88=EDGE_LOOP('',(#110,#111,#112,#113));
#89=EDGE_LOOP('',(#114,#115,#116,#117));
#90=EDGE_LOOP('',(#118,#119,#120,#121));
#91=EDGE_LOOP('',(#122,#123,#124,#125));
#92=EDGE_LOOP('',(#126,#127,#128,#129));
#93=EDGE_LOOP('',(#130,#131,#132,#133));
#94=EDGE_LOOP('',(#134,#135,#136,#137));
#95=EDGE_LOOP('',(#138,#139,#140,#141));
#96=EDGE_LOOP('',(#142,#143,#144,#145));
#97=EDGE_LOOP('',(#146,#147,#148,#149));
#98=EDGE_LOOP('',(#150));
#99=EDGE_LOOP('',(#151));
#100=ORIENTED_EDGE('',*,*,#170,.F.);
#101=ORIENTED_EDGE('',*,*,#171,.F.);
#102=ORIENTED_EDGE('',*,*,#172,.T.);
#103=ORIENTED_EDGE('',*,*,#173,.T.);
#104=ORIENTED_EDGE('',*,*,#174,.T.);
#105=ORIENTED_EDGE('',*,*,#175,.F.);
#106=ORIENTED_EDGE('',*,*,#176,.F.);
#107=ORIENTED_EDGE('',*,*,#177,.T.);
#108=ORIENTED_EDGE('',*,*,#178,.T.);
#109=ORIENTED_EDGE('',*,*,#179,.F.);
#110=ORIENTED_EDGE('',*,*,#180,.F.);
#111=ORIENTED_EDGE('',*,*,#177,.F.);
#112=ORIENTED_EDGE('',*,*,#181,.F.);
#113=ORIENTED_EDGE('',*,*,#182,.T.);
#114=ORIENTED_EDGE('',*,*,#183,.F.);
#115=ORIENTED_EDGE('',*,*,#171,.T.);
#116=ORIENTED_EDGE('',*,*,#184,.F.);
#117=ORIENTED_EDGE('',*,*,#185,.F.);
#118=ORIENTED_EDGE('',*,*,#186,.F.);
#119=ORIENTED_EDGE('',*,*,#187,.T.);
#120=ORIENTED_EDGE('',*,*,#188,.F.);
#121=ORIENTED_EDGE('',*,*,#173,.F.);
#122=ORIENTED_EDGE('',*,*,#189,.F.);
#123=ORIENTED_EDGE('',*,*,#185,.T.);
#124=ORIENTED_EDGE('',*,*,#190,.T.);
#125=ORIENTED_EDGE('',*,*,#187,.F.);
#126=ORIENTED_EDGE('',*,*,#182,.F.);
#127=ORIENTED_EDGE('',*,*,#191,.T.);
#128=ORIENTED_EDGE('',*,*,#192,.T.);
#129=ORIENTED_EDGE('',*,*,#193,.F.);
#130=ORIENTED_EDGE('',*,*,#179,.T.);
#131=ORIENTED_EDGE('',*,*,#194,.F.);
#132=ORIENTED_EDGE('',*,*,#192,.F.);
#133=ORIENTED_EDGE('',*,*,#195,.F.);
#134=ORIENTED_EDGE('',*,*,#172,.F.);
#135=ORIENTED_EDGE('',*,*,#183,.T.);
#136=ORIENTED_EDGE('',*,*,#189,.T.);
#137=ORIENTED_EDGE('',*,*,#186,.T.);
#138=ORIENTED_EDGE('',*,*,#195,.T.);
#139=ORIENTED_EDGE('',*,*,#191,.F.);
#140=ORIENTED_EDGE('',*,*,#181,.T.);
#141=ORIENTED_EDGE('',*,*,#176,.T.);
#142=ORIENTED_EDGE('',*,*,#178,.F.);
#143=ORIENTED_EDGE('',*,*,#180,.T.);
#144=ORIENTED_EDGE('',*,*,#193,.T.);
#145=ORIENTED_EDGE('',*,*,#194,.T.);
#146=ORIENTED_EDGE('',*,*,#190,.F.);
#147=ORIENTED_EDGE('',*,*,#184,.T.);
#148=ORIENTED_EDGE('',*,*,#170,.T.);
#149=ORIENTED_EDGE('',*,*,#188,.T.);
#150=ORIENTED_EDGE('',*,*,#174,.F.);
#151=ORIENTED_EDGE('',*,*,#175,.T.);
#152=VERTEX_POINT('',#315);
#153=VERTEX_POINT('',#316);
#154=VERTEX_POINT('',#318);
#155=VERTEX_POINT('',#320);
#156=VERTEX_POINT('',#323);
#157=VERTEX_POINT('',#326);
#158=VERTEX_POINT('',#328);
#159=VERTEX_POINT('',#329);
#160=VERTEX_POINT('',#331);
#161=VERTEX_POINT('',#333);
#162=VERTEX_POINT('',#337);
#163=VERTEX_POINT('',#339);
#164=VERTEX_POINT('',#343);
#165=VERTEX_POINT('',#345);
#166=VERTEX_POINT('',#349);
#167=VERTEX_POINT('',#351);
#168=VERTEX_POINT('',#357);
#169=VERTEX_POINT('',#359);
#170=EDGE_CURVE('',#152,#153,#196,.T.);
#171=EDGE_CURVE('',#154,#152,#197,.T.);
#172=EDGE_CURVE('',#154,#155,#198,.T.);
#173=EDGE_CURVE('',#155,#153,#199,.T.);
#174=EDGE_CURVE('',#156,#156,#74,.T.);
#175=EDGE_CURVE('',#157,#157,#75,.T.);
#176=EDGE_CURVE('',#158,#159,#200,.T.);
#177=EDGE_CURVE('',#158,#160,#201,.T.);
#178=EDGE_CURVE('',#160,#161,#202,.T.);
#179=EDGE_CURVE('',#159,#161,#203,.T.);
#180=EDGE_CURVE('',#160,#162,#204,.T.);
#181=EDGE_CURVE('',#163,#158,#205,.T.);
#182=EDGE_CURVE('',#163,#162,#206,.T.);
#183=EDGE_CURVE('',#154,#164,#207,.T.);
#184=EDGE_CURVE('',#165,#152,#208,.T.);
#185=EDGE_CURVE('',#164,#165,#209,.T.);
#186=EDGE_CURVE('',#166,#155,#210,.T.);
#187=EDGE_CURVE('',#166,#167,#211,.T.);
#188=EDGE_CURVE('',#153,#167,#212,.T.);
#189=EDGE_CURVE('',#164,#166,#213,.T.);
#190=EDGE_CURVE('',#165,#167,#214,.T.);
#191=EDGE_CURVE('',#163,#168,#215,.T.);
#192=EDGE_CURVE('',#168,#169,#216,.T.);
#193=EDGE_CURVE('',#162,#169,#217,.T.);
#194=EDGE_CURVE('',#169,#161,#218,.T.);
#195=EDGE_CURVE('',#159,#168,#219,.T.);
#196=LINE('',#314,#220);
#197=LINE('',#317,#221);
#198=LINE('',#319,#222);
#199=LINE('',#321,#223);
#200=LINE('',#327,#224);
#201=LINE('',#330,#225);
#202=LINE('',#332,#226);
#203=LINE('',#334,#227);
#204=LINE('',#336,#228);
#205=LINE('',#338,#229);
#206=LINE('',#340,#230);
#207=LINE('',#342,#231);
#208=LINE('',#344,#232);
#209=LINE('',#346,#233);
#210=LINE('',#348,#234);
#211=LINE('',#350,#235);
#212=LINE('',#352,#236);
#213=LINE('',#354,#237);
#214=LINE('',#355,#238);
#215=LINE('',#356,#239);
#216=LINE('',#358,#240);
#217=LINE('',#360,#241);
#218=LINE('',#362,#242);
#219=LINE('',#363,#243);
#220=VECTOR('',#261,1.);
#221=VECTOR('',#262,1.);
#222=VECTOR('',#263,1.);
#223=VECTOR('',#264,1.);
#224=VECTOR('',#271,1.);
#225=VECTOR('',#272,1.);
#226=VECTOR('',#273,1.);
#227=VECTOR('',#274,1.);
#228=VECTOR('',#277,1.);
#229=VECTOR('',#278,1.);
#230=VECTOR('',#279,1.);
#231=VECTOR('',#282,1.);
#232=VECTOR('',#283,1.);
#233=VECTOR('',#284,1.);
#234=VECTOR('',#287,1.);
#235=VECTOR('',#288,1.);
#236=VECTOR('',#289,1.);
#237=VECTOR('',#292,1.);
#238=VECTOR('',#293,1.);
#239=VECTOR('',#294,1.);
#240=VECTOR('',#295,1.);
#241=VECTOR('',#296,1.);
#242=VECTOR('',#299,1.);
#243=VECTOR('',#300,1.);
#244=AXIS2_PLACEMENT_3D('',#313,#259,#260);
#245=AXIS2_PLACEMENT_3D('',#322,#265,#266);
#246=AXIS2_PLACEMENT_3D('',#324,#267,#268);
#247=AXIS2_PLACEMENT_3D('',#325,#269,#270);
#248=AXIS2_PLACEMENT_3D('',#335,#275,#276);
#249=AXIS2_PLACEMENT_3D('',#341,#280,#281);
#250=AXIS2_PLACEMENT_3D('',#347,#285,#286);
#251=AXIS2_PLACEMENT_3D('',#353,#290,#291);
#252=AXIS2_PLACEMENT_3D('',#361,#297,#298);
#253=AXIS2_PLACEMENT_3D('',#364,#301,#302);
#254=AXIS2_PLACEMENT_3D('',#365,#303,#304);
#255=AXIS2_PLACEMENT_3D('',#366,#305,#306);
#256=AXIS2_PLACEMENT_3D('',#367,#307,#308);
#257=AXIS2_PLACEMENT_3D('',#368,#309,#310);
#258=AXIS2_PLACEMENT_3D('',#369,#311,#312);
#259=DIRECTION('',(0.,0.,1.));
#260=DIRECTION('',(1.,0.,0.));
#261=DIRECTION('',(-1.,0.,0.));
#262=DIRECTION('',(-0.010646307311314,-0.999943326464372,0.));
#263=DIRECTION('',(-1.,0.,0.));
#264=DIRECTION('',(0.0106463073113135,-0.999943326464372,0.));
#265=DIRECTION('',(0.,0.,-1.));
#266=DIRECTION('',(-1.,0.,0.));
#267=DIRECTION('',(0.,0.,1.));
#268=DIRECTION('',(-1.,0.,0.));
#269=DIRECTION('',(0.,0.,-1.));
#270=DIRECTION('',(-1.,0.,0.));
#271=DIRECTION('',(-1.,0.,0.));
#272=DIRECTION('',(-0.010646307311314,-0.999943326464372,0.));
#273=DIRECTION('',(-1.,0.,0.));
#274=DIRECTION('',(0.0106463073113135,-0.999943326464372,0.));
#275=DIRECTION('',(0.,0.,-1.));
#276=DIRECTION('',(1.,0.,0.));
#277=DIRECTION('',(-0.0345093360104465,0.0348787097065209,0.998795565337235));
#278=DIRECTION('',(0.0352511238252431,0.0348778061765211,-0.998769691623334));
#279=DIRECTION('',(-0.010646307311314,-0.999943326464372,0.));
#280=DIRECTION('',(0.999334188007454,-0.0106398218685535,0.0348994967024999));
#281=DIRECTION('',(-0.0348975188246301,0.000371550766905003,0.999390827019096));
#282=DIRECTION('',(0.,0.,-1.));
#283=DIRECTION('',(0.,0.,1.));
#284=DIRECTION('',(-0.010646307311314,-0.999943326464372,0.));
#285=DIRECTION('',(0.999943326464372,-0.010646307311314,0.));
#286=DIRECTION('',(0.,0.,1.));
#287=DIRECTION('',(0.,0.,1.));
#288=DIRECTION('',(0.0106463073113135,-0.999943326464372,0.));
#289=DIRECTION('',(0.,0.,-1.));
#290=DIRECTION('',(-0.999943326464372,-0.0106463073113135,0.));
#291=DIRECTION('',(0.,0.,-1.));
#292=DIRECTION('',(-1.,0.,0.));
#293=DIRECTION('',(-1.,0.,0.));
#294=DIRECTION('',(-1.,0.,0.));
#295=DIRECTION('',(0.0106463073113135,-0.999943326464372,0.));
#296=DIRECTION('',(-1.,0.,0.));
#297=DIRECTION('',(0.,0.,1.));
#298=DIRECTION('',(-1.,0.,0.));
#299=DIRECTION('',(-0.0345093360104465,-0.0348787097065202,-0.998795565337235));
#300=DIRECTION('',(0.0352511238252434,-0.0348778061765211,0.998769691623334));
#301=DIRECTION('',(-0.999334188007454,-0.0106398218685531,0.0348994967025002));
#302=DIRECTION('',(-0.0348975188246304,-0.000371550766904991,-0.999390827019096));
#303=DIRECTION('',(0.,-1.,0.));
#304=DIRECTION('',(0.,0.,1.));
#305=DIRECTION('',(0.,-0.999390827019096,-0.0348994967024997));
#306=DIRECTION('',(0.,-0.0348994967024997,0.999390827019096));
#307=DIRECTION('',(0.,0.999390827019096,-0.0348994967025004));
#308=DIRECTION('',(0.,-0.0348994967025004,-0.999390827019096));
#309=DIRECTION('',(0.,1.,0.));
#310=DIRECTION('',(0.,0.,-1.));
#311=DIRECTION('',(0.,0.,-1.));
#312=DIRECTION('',(-1.,0.,0.));
#313=CARTESIAN_POINT('',(0.,0.,0.));
#314=CARTESIAN_POINT('',(11.,-8.55,17.5));
#315=CARTESIAN_POINT('',(8.55815950558983,-8.55,17.5));
#316=CARTESIAN_POINT('',(-8.55815950558984,-8.55,17.5));
#317=CARTESIAN_POINT('',(8.76638168213004,11.0070510755403,17.5));
#318=CARTESIAN_POINT('',(8.74022167872036,8.55,17.5));
#319=CARTESIAN_POINT('',(11.,8.55,17.5));
#320=CARTESIAN_POINT('',(-8.74022167872035,8.55,17.5));
#321=CARTESIAN_POINT('',(-8.76638168213003,11.0070510755403,17.5));
#322=CARTESIAN_POINT('',(0.,0.,17.5));
#323=CARTESIAN_POINT('',(-5.4575,0.,17.5));
#324=CARTESIAN_POINT('',(8.75,11.,17.5));
#325=CARTESIAN_POINT('',(0.,0.,-0.200000000000013));
#326=CARTESIAN_POINT('',(-5.4575,0.,-0.200000000000013));
#327=CARTESIAN_POINT('',(11.,9.75698415389909,-0.2));
#328=CARTESIAN_POINT('',(9.96012489306929,9.75698415389909,-0.2));
#329=CARTESIAN_POINT('',(-9.96012489306928,9.75698415389909,-0.2));
#330=CARTESIAN_POINT('',(9.97329743196894,10.994201151318,-0.199999999999998));
#331=CARTESIAN_POINT('',(9.75236141491035,-9.75698415389835,-0.200000000000013));
#332=CARTESIAN_POINT('',(11.,-9.75698415389835,-0.200000000000013));
#333=CARTESIAN_POINT('',(-9.75236141491035,-9.75698415389835,-0.200000000000013));
#334=CARTESIAN_POINT('',(-9.97329743196967,10.994201151318,-0.200000000000003));
#335=CARTESIAN_POINT('',(-9.95698415389909,11.,-0.2));
#336=CARTESIAN_POINT('',(9.72764754657331,-9.73200575851016,0.515287656936989));
#337=CARTESIAN_POINT('',(9.18227073375621,-9.18079145728001,16.3));
#338=CARTESIAN_POINT('',(9.96166239767633,9.75850537597189,-0.243562100597509));
#339=CARTESIAN_POINT('',(9.37776486753054,9.18079145728,16.3));
#340=CARTESIAN_POINT('',(9.39713739022791,11.0003354758367,16.3));
#341=CARTESIAN_POINT('',(9.97329743196894,10.994201151318,-0.200000000000011));
#342=CARTESIAN_POINT('',(8.74022167872036,8.55,16.45));
#343=CARTESIAN_POINT('',(8.74022167872036,8.55,16.3));
#344=CARTESIAN_POINT('',(8.55815950558983,-8.55,16.45));
#345=CARTESIAN_POINT('',(8.55815950558983,-8.55,16.3));
#346=CARTESIAN_POINT('',(8.76638168213004,11.0070510755403,16.3));
#347=CARTESIAN_POINT('',(8.76638168213004,11.0070510755403,16.45));
#348=CARTESIAN_POINT('',(-8.74022167872035,8.55,17.5));
#349=CARTESIAN_POINT('',(-8.74022167872035,8.55,16.3));
#350=CARTESIAN_POINT('',(-8.76638168213003,11.0070510755403,16.3));
#351=CARTESIAN_POINT('',(-8.55815950558983,-8.55,16.3));
#352=CARTESIAN_POINT('',(-8.55815950558983,-8.55,17.5));
#353=CARTESIAN_POINT('',(-8.76638168213003,11.0070510755403,17.5));
#354=CARTESIAN_POINT('',(11.,8.55,16.3));
#355=CARTESIAN_POINT('',(-8.899999999999,-8.55,16.3));
#356=CARTESIAN_POINT('',(11.,9.18079145728,16.3));
#357=CARTESIAN_POINT('',(-9.37776486753057,9.18079145728,16.3));
#358=CARTESIAN_POINT('',(-9.39707747138106,10.9947076605465,16.3));
#359=CARTESIAN_POINT('',(-9.18227073375624,-9.18079145728002,16.3));
#360=CARTESIAN_POINT('',(-8.899999999999,-9.18079145728002,16.3));
#361=CARTESIAN_POINT('',(-8.899999999999,11.,16.3));
#362=CARTESIAN_POINT('',(-9.33584596177407,-9.3360104911822,11.855108430977));
#363=CARTESIAN_POINT('',(-9.83614510909131,9.63431734483924,3.31271781362387));
#364=CARTESIAN_POINT('',(-9.84896193453333,10.9955249402572,3.36070459434186));
#365=CARTESIAN_POINT('',(11.,8.55,16.45));
#366=CARTESIAN_POINT('',(11.,9.75698415389835,-0.200000000000026));
#367=CARTESIAN_POINT('',(11.,-9.63264160953113,3.36070459434186));
#368=CARTESIAN_POINT('',(11.,-8.55,17.5));
#369=CARTESIAN_POINT('',(0.,0.,-0.200000000000013));
#370=MECHANICAL_DESIGN_GEOMETRIC_PRESENTATION_REPRESENTATION('',(#32),#371);
#371=(
GEOMETRIC_REPRESENTATION_CONTEXT(3)
GLOBAL_UNCERTAINTY_ASSIGNED_CONTEXT((#372))
GLOBAL_UNIT_ASSIGNED_CONTEXT((#378,#374,#373))
REPRESENTATION_CONTEXT('KDS-DE_10-11_kunden_info',
'TOP_LEVEL_ASSEMBLY_PART')
);
#372=UNCERTAINTY_MEASURE_WITH_UNIT(LENGTH_MEASURE(2.E-5),#378,
'DISTANCE_ACCURACY_VALUE','Maximum Tolerance applied to model');
#373=(
NAMED_UNIT(*)
SI_UNIT($,.STERADIAN.)
SOLID_ANGLE_UNIT()
);
#374=(
CONVERSION_BASED_UNIT('DEGREE',#376)
NAMED_UNIT(#375)
PLANE_ANGLE_UNIT()
);
#375=DIMENSIONAL_EXPONENTS(0.,0.,0.,0.,0.,0.,0.);
#376=PLANE_ANGLE_MEASURE_WITH_UNIT(PLANE_ANGLE_MEASURE(0.0174532925),#377);
#377=(
NAMED_UNIT(*)
PLANE_ANGLE_UNIT()
SI_UNIT($,.RADIAN.)
);
#378=(
LENGTH_UNIT()
NAMED_UNIT(*)
SI_UNIT(.MILLI.,.METRE.)
);
ENDSEC;
END-ISO-10303-21;
