ISO-10303-21;
HEADER;
/* Generated by software containing ST-Developer
 * from STEP Tools, Inc. (www.steptools.com) 
 */
/* OPTION: using custom schema-name function */

FILE_DESCRIPTION(
/* description */ (''),
/* implementation_level */ '2;1');

FILE_NAME(
/* name */ '28527.4_28568.6_KDS-DE_7-8.stp',
/* time_stamp */ '2018-10-22T11:00:50+02:00',
/* author */ (''),
/* organization */ (''),
/* preprocessor_version */ 'ST-DEVELOPER v16.7',
/* originating_system */ 'SIEMENS PLM Software NX 12.0',
/* authorisation */ '');

FILE_SCHEMA (('AUTOMOTIVE_DESIGN { 1 0 10303 214 3 1 1 1 }'));
ENDSEC;

DATA;
#10=SHAPE_REPRESENTATION_RELATIONSHIP('None',
'relationship between 28527.4_28568.6_KDS-DE_7-8 and KDS-DE_7-8_kunde
n-info-None',#22,#11);
#11=ADVANCED_BREP_SHAPE_REPRESENTATION('28527.4_28568.6_KDS-DE_7-8',(#32),
#363);
#12=SHAPE_DEFINITION_REPRESENTATION(#13,#22);
#13=PRODUCT_DEFINITION_SHAPE('','',#14);
#14=PRODUCT_DEFINITION(' ','',#16,#15);
#15=PRODUCT_DEFINITION_CONTEXT('part definition',#21,'design');
#16=PRODUCT_DEFINITION_FORMATION_WITH_SPECIFIED_SOURCE(' ',' ',#18,
 .NOT_KNOWN.);
#17=PRODUCT_RELATED_PRODUCT_CATEGORY('part','',(#18));
#18=PRODUCT('28527.4_28568.6_KDS-DE_7-8','28527.4_28568.6_KDS-DE_7-8',' ',(#19));
#19=PRODUCT_CONTEXT(' ',#21,'mechanical');
#20=APPLICATION_PROTOCOL_DEFINITION('international standard',
'automotive_design',2010,#21);
#21=APPLICATION_CONTEXT(
'core data for automotive mechanical design processes');
#22=SHAPE_REPRESENTATION('28527.4_28568.6_KDS-DE_7-8',(#236),#363);
#23=PRESENTATION_LAYER_ASSIGNMENT('1','Layer 1',(#32));
#24=STYLED_ITEM('',(#25),#32);
#25=PRESENTATION_STYLE_ASSIGNMENT((#26));
#26=SURFACE_STYLE_USAGE(.BOTH.,#27);
#27=SURFACE_SIDE_STYLE('',(#28));
#28=SURFACE_STYLE_FILL_AREA(#29);
#29=FILL_AREA_STYLE('',(#30));
#30=FILL_AREA_STYLE_COLOUR('',#31);
#31=COLOUR_RGB('Mittleres Stahlblau',0.596063172350652,0.666666666666667,
0.686259250782025);
#32=MANIFOLD_SOLID_BREP('',#33);
#33=CLOSED_SHELL('',(#43,#44,#45,#46,#47,#48,#49,#50,#51,#52,#53,#54));
#34=CYLINDRICAL_SURFACE('',#250,3.8875);
#35=FACE_OUTER_BOUND('',#80,.T.);
#36=FACE_OUTER_BOUND('',#81,.T.);
#37=FACE_OUTER_BOUND('',#82,.T.);
#38=FACE_OUTER_BOUND('',#85,.T.);
#39=FACE_OUTER_BOUND('',#86,.T.);
#40=FACE_OUTER_BOUND('',#87,.T.);
#41=FACE_OUTER_BOUND('',#88,.T.);
#42=FACE_OUTER_BOUND('',#89,.T.);
#43=ADVANCED_FACE('',(#68,#69),#55,.T.);
#44=ADVANCED_FACE('',(#70,#71),#56,.T.);
#45=ADVANCED_FACE('',(#35),#57,.T.);
#46=ADVANCED_FACE('',(#36),#58,.T.);
#47=ADVANCED_FACE('',(#37),#59,.T.);
#48=ADVANCED_FACE('',(#72,#73),#60,.T.);
#49=ADVANCED_FACE('',(#38),#61,.T.);
#50=ADVANCED_FACE('',(#39),#62,.F.);
#51=ADVANCED_FACE('',(#40),#63,.F.);
#52=ADVANCED_FACE('',(#41),#64,.F.);
#53=ADVANCED_FACE('',(#42),#65,.F.);
#54=ADVANCED_FACE('',(#74,#75),#34,.F.);
#55=PLANE('',#238);
#56=PLANE('',#240);
#57=PLANE('',#241);
#58=PLANE('',#242);
#59=PLANE('',#243);
#60=PLANE('',#244);
#61=PLANE('',#245);
#62=PLANE('',#246);
#63=PLANE('',#247);
#64=PLANE('',#248);
#65=PLANE('',#249);
#66=CIRCLE('',#237,3.8875);
#67=CIRCLE('',#239,3.8875);
#68=FACE_BOUND('',#76,.T.);
#69=FACE_BOUND('',#77,.T.);
#70=FACE_BOUND('',#78,.T.);
#71=FACE_BOUND('',#79,.T.);
#72=FACE_BOUND('',#83,.T.);
#73=FACE_BOUND('',#84,.T.);
#74=FACE_BOUND('',#90,.T.);
#75=FACE_BOUND('',#91,.T.);
#76=EDGE_LOOP('',(#92,#93,#94,#95));
#77=EDGE_LOOP('',(#96));
#78=EDGE_LOOP('',(#97));
#79=EDGE_LOOP('',(#98,#99,#100,#101));
#80=EDGE_LOOP('',(#102,#103,#104,#105));
#81=EDGE_LOOP('',(#106,#107,#108,#109));
#82=EDGE_LOOP('',(#110,#111,#112,#113));
#83=EDGE_LOOP('',(#114,#115,#116,#117));
#84=EDGE_LOOP('',(#118,#119,#120,#121));
#85=EDGE_LOOP('',(#122,#123,#124,#125));
#86=EDGE_LOOP('',(#126,#127,#128,#129));
#87=EDGE_LOOP('',(#130,#131,#132,#133));
#88=EDGE_LOOP('',(#134,#135,#136,#137));
#89=EDGE_LOOP('',(#138,#139,#140,#141));
#90=EDGE_LOOP('',(#142));
#91=EDGE_LOOP('',(#143));
#92=ORIENTED_EDGE('',*,*,#162,.F.);
#93=ORIENTED_EDGE('',*,*,#163,.F.);
#94=ORIENTED_EDGE('',*,*,#164,.T.);
#95=ORIENTED_EDGE('',*,*,#165,.T.);
#96=ORIENTED_EDGE('',*,*,#166,.T.);
#97=ORIENTED_EDGE('',*,*,#167,.F.);
#98=ORIENTED_EDGE('',*,*,#168,.F.);
#99=ORIENTED_EDGE('',*,*,#169,.T.);
#100=ORIENTED_EDGE('',*,*,#170,.T.);
#101=ORIENTED_EDGE('',*,*,#171,.F.);
#102=ORIENTED_EDGE('',*,*,#172,.F.);
#103=ORIENTED_EDGE('',*,*,#169,.F.);
#104=ORIENTED_EDGE('',*,*,#173,.F.);
#105=ORIENTED_EDGE('',*,*,#174,.T.);
#106=ORIENTED_EDGE('',*,*,#175,.F.);
#107=ORIENTED_EDGE('',*,*,#163,.T.);
#108=ORIENTED_EDGE('',*,*,#176,.F.);
#109=ORIENTED_EDGE('',*,*,#177,.F.);
#110=ORIENTED_EDGE('',*,*,#178,.F.);
#111=ORIENTED_EDGE('',*,*,#179,.T.);
#112=ORIENTED_EDGE('',*,*,#180,.F.);
#113=ORIENTED_EDGE('',*,*,#165,.F.);
#114=ORIENTED_EDGE('',*,*,#181,.F.);
#115=ORIENTED_EDGE('',*,*,#177,.T.);
#116=ORIENTED_EDGE('',*,*,#182,.T.);
#117=ORIENTED_EDGE('',*,*,#179,.F.);
#118=ORIENTED_EDGE('',*,*,#183,.T.);
#119=ORIENTED_EDGE('',*,*,#174,.F.);
#120=ORIENTED_EDGE('',*,*,#184,.T.);
#121=ORIENTED_EDGE('',*,*,#185,.F.);
#122=ORIENTED_EDGE('',*,*,#185,.T.);
#123=ORIENTED_EDGE('',*,*,#186,.F.);
#124=ORIENTED_EDGE('',*,*,#171,.T.);
#125=ORIENTED_EDGE('',*,*,#187,.F.);
#126=ORIENTED_EDGE('',*,*,#164,.F.);
#127=ORIENTED_EDGE('',*,*,#175,.T.);
#128=ORIENTED_EDGE('',*,*,#181,.T.);
#129=ORIENTED_EDGE('',*,*,#178,.T.);
#130=ORIENTED_EDGE('',*,*,#186,.T.);
#131=ORIENTED_EDGE('',*,*,#184,.F.);
#132=ORIENTED_EDGE('',*,*,#173,.T.);
#133=ORIENTED_EDGE('',*,*,#168,.T.);
#134=ORIENTED_EDGE('',*,*,#170,.F.);
#135=ORIENTED_EDGE('',*,*,#172,.T.);
#136=ORIENTED_EDGE('',*,*,#183,.F.);
#137=ORIENTED_EDGE('',*,*,#187,.T.);
#138=ORIENTED_EDGE('',*,*,#182,.F.);
#139=ORIENTED_EDGE('',*,*,#176,.T.);
#140=ORIENTED_EDGE('',*,*,#162,.T.);
#141=ORIENTED_EDGE('',*,*,#180,.T.);
#142=ORIENTED_EDGE('',*,*,#167,.T.);
#143=ORIENTED_EDGE('',*,*,#166,.F.);
#144=VERTEX_POINT('',#307);
#145=VERTEX_POINT('',#308);
#146=VERTEX_POINT('',#310);
#147=VERTEX_POINT('',#312);
#148=VERTEX_POINT('',#315);
#149=VERTEX_POINT('',#318);
#150=VERTEX_POINT('',#320);
#151=VERTEX_POINT('',#321);
#152=VERTEX_POINT('',#323);
#153=VERTEX_POINT('',#325);
#154=VERTEX_POINT('',#329);
#155=VERTEX_POINT('',#331);
#156=VERTEX_POINT('',#335);
#157=VERTEX_POINT('',#337);
#158=VERTEX_POINT('',#341);
#159=VERTEX_POINT('',#343);
#160=VERTEX_POINT('',#349);
#161=VERTEX_POINT('',#351);
#162=EDGE_CURVE('',#144,#145,#188,.T.);
#163=EDGE_CURVE('',#146,#144,#189,.T.);
#164=EDGE_CURVE('',#146,#147,#190,.T.);
#165=EDGE_CURVE('',#147,#145,#191,.T.);
#166=EDGE_CURVE('',#148,#148,#66,.T.);
#167=EDGE_CURVE('',#149,#149,#67,.T.);
#168=EDGE_CURVE('',#150,#151,#192,.T.);
#169=EDGE_CURVE('',#150,#152,#193,.T.);
#170=EDGE_CURVE('',#152,#153,#194,.T.);
#171=EDGE_CURVE('',#151,#153,#195,.T.);
#172=EDGE_CURVE('',#152,#154,#196,.T.);
#173=EDGE_CURVE('',#155,#150,#197,.T.);
#174=EDGE_CURVE('',#155,#154,#198,.T.);
#175=EDGE_CURVE('',#146,#156,#199,.T.);
#176=EDGE_CURVE('',#157,#144,#200,.T.);
#177=EDGE_CURVE('',#156,#157,#201,.T.);
#178=EDGE_CURVE('',#158,#147,#202,.T.);
#179=EDGE_CURVE('',#158,#159,#203,.T.);
#180=EDGE_CURVE('',#145,#159,#204,.T.);
#181=EDGE_CURVE('',#156,#158,#205,.T.);
#182=EDGE_CURVE('',#157,#159,#206,.T.);
#183=EDGE_CURVE('',#160,#154,#207,.T.);
#184=EDGE_CURVE('',#155,#161,#208,.T.);
#185=EDGE_CURVE('',#160,#161,#209,.T.);
#186=EDGE_CURVE('',#151,#161,#210,.T.);
#187=EDGE_CURVE('',#160,#153,#211,.T.);
#188=LINE('',#306,#212);
#189=LINE('',#309,#213);
#190=LINE('',#311,#214);
#191=LINE('',#313,#215);
#192=LINE('',#319,#216);
#193=LINE('',#322,#217);
#194=LINE('',#324,#218);
#195=LINE('',#326,#219);
#196=LINE('',#328,#220);
#197=LINE('',#330,#221);
#198=LINE('',#332,#222);
#199=LINE('',#334,#223);
#200=LINE('',#336,#224);
#201=LINE('',#338,#225);
#202=LINE('',#340,#226);
#203=LINE('',#342,#227);
#204=LINE('',#344,#228);
#205=LINE('',#346,#229);
#206=LINE('',#347,#230);
#207=LINE('',#348,#231);
#208=LINE('',#350,#232);
#209=LINE('',#352,#233);
#210=LINE('',#354,#234);
#211=LINE('',#355,#235);
#212=VECTOR('',#253,1.);
#213=VECTOR('',#254,1.);
#214=VECTOR('',#255,1.);
#215=VECTOR('',#256,1.);
#216=VECTOR('',#263,1.);
#217=VECTOR('',#264,1.);
#218=VECTOR('',#265,1.);
#219=VECTOR('',#266,1.);
#220=VECTOR('',#269,1.);
#221=VECTOR('',#270,1.);
#222=VECTOR('',#271,1.);
#223=VECTOR('',#274,1.);
#224=VECTOR('',#275,1.);
#225=VECTOR('',#276,1.);
#226=VECTOR('',#279,1.);
#227=VECTOR('',#280,1.);
#228=VECTOR('',#281,1.);
#229=VECTOR('',#284,1.);
#230=VECTOR('',#285,1.);
#231=VECTOR('',#286,1.);
#232=VECTOR('',#287,1.);
#233=VECTOR('',#288,1.);
#234=VECTOR('',#291,1.);
#235=VECTOR('',#292,1.);
#236=AXIS2_PLACEMENT_3D('',#305,#251,#252);
#237=AXIS2_PLACEMENT_3D('',#314,#257,#258);
#238=AXIS2_PLACEMENT_3D('',#316,#259,#260);
#239=AXIS2_PLACEMENT_3D('',#317,#261,#262);
#240=AXIS2_PLACEMENT_3D('',#327,#267,#268);
#241=AXIS2_PLACEMENT_3D('',#333,#272,#273);
#242=AXIS2_PLACEMENT_3D('',#339,#277,#278);
#243=AXIS2_PLACEMENT_3D('',#345,#282,#283);
#244=AXIS2_PLACEMENT_3D('',#353,#289,#290);
#245=AXIS2_PLACEMENT_3D('',#356,#293,#294);
#246=AXIS2_PLACEMENT_3D('',#357,#295,#296);
#247=AXIS2_PLACEMENT_3D('',#358,#297,#298);
#248=AXIS2_PLACEMENT_3D('',#359,#299,#300);
#249=AXIS2_PLACEMENT_3D('',#360,#301,#302);
#250=AXIS2_PLACEMENT_3D('',#361,#303,#304);
#251=DIRECTION('',(0.,0.,1.));
#252=DIRECTION('',(1.,0.,0.));
#253=DIRECTION('',(-1.,0.,0.));
#254=DIRECTION('',(0.,-1.,0.));
#255=DIRECTION('',(-1.,0.,0.));
#256=DIRECTION('',(0.,-1.,0.));
#257=DIRECTION('',(0.,0.,-1.));
#258=DIRECTION('',(1.,0.,0.));
#259=DIRECTION('',(0.,0.,1.));
#260=DIRECTION('',(-1.,0.,0.));
#261=DIRECTION('',(0.,0.,-1.));
#262=DIRECTION('',(-1.,0.,0.));
#263=DIRECTION('',(-1.,0.,0.));
#264=DIRECTION('',(0.,-1.,0.));
#265=DIRECTION('',(-1.,0.,0.));
#266=DIRECTION('',(0.,-1.,0.));
#267=DIRECTION('',(0.,0.,-1.));
#268=DIRECTION('',(1.,0.,0.));
#269=DIRECTION('',(-0.0348782627423735,0.034878262742374,0.998782765958718));
#270=DIRECTION('',(0.0348782627423735,0.0348782627423734,-0.998782765958718));
#271=DIRECTION('',(0.,-1.,0.));
#272=DIRECTION('',(0.999390827019096,0.,0.0348994967024999));
#273=DIRECTION('',(-0.0348994967024999,0.,0.999390827019096));
#274=DIRECTION('',(0.,0.,-1.));
#275=DIRECTION('',(0.,0.,1.));
#276=DIRECTION('',(0.,-1.,0.));
#277=DIRECTION('',(1.,0.,0.));
#278=DIRECTION('',(0.,0.,1.));
#279=DIRECTION('',(0.,0.,1.));
#280=DIRECTION('',(0.,-1.,0.));
#281=DIRECTION('',(0.,0.,-1.));
#282=DIRECTION('',(-1.,0.,0.));
#283=DIRECTION('',(0.,0.,-1.));
#284=DIRECTION('',(-1.,0.,0.));
#285=DIRECTION('',(-1.,0.,0.));
#286=DIRECTION('',(1.,0.,0.));
#287=DIRECTION('',(-1.,0.,0.));
#288=DIRECTION('',(0.,1.,0.));
#289=DIRECTION('',(0.,0.,1.));
#290=DIRECTION('',(-1.,0.,0.));
#291=DIRECTION('',(0.0348782627423739,-0.0348782627423734,0.998782765958718));
#292=DIRECTION('',(-0.0348782627423734,-0.0348782627423734,-0.998782765958718));
#293=DIRECTION('',(-0.999390827019096,0.,0.0348994967024998));
#294=DIRECTION('',(-0.0348994967024998,0.,-0.999390827019096));
#295=DIRECTION('',(0.,-1.,0.));
#296=DIRECTION('',(0.,0.,1.));
#297=DIRECTION('',(0.,-0.999390827019096,-0.0348994967024997));
#298=DIRECTION('',(0.,-0.0348994967024997,0.999390827019096));
#299=DIRECTION('',(0.,0.999390827019096,-0.0348994967025004));
#300=DIRECTION('',(0.,-0.0348994967025004,-0.999390827019096));
#301=DIRECTION('',(0.,1.,0.));
#302=DIRECTION('',(0.,0.,-1.));
#303=DIRECTION('',(0.,0.,-1.));
#304=DIRECTION('',(-1.,0.,0.));
#305=CARTESIAN_POINT('',(0.,0.,0.));
#306=CARTESIAN_POINT('',(11.,-8.55,17.5));
#307=CARTESIAN_POINT('',(8.55,-8.55,17.5));
#308=CARTESIAN_POINT('',(-8.55,-8.55,17.5));
#309=CARTESIAN_POINT('',(8.55,11.,17.5));
#310=CARTESIAN_POINT('',(8.55,8.55,17.5));
#311=CARTESIAN_POINT('',(11.,8.55,17.5));
#312=CARTESIAN_POINT('',(-8.55,8.55,17.5));
#313=CARTESIAN_POINT('',(-8.55,11.,17.5));
#314=CARTESIAN_POINT('',(0.,0.,17.5));
#315=CARTESIAN_POINT('',(3.8875,0.,17.5));
#316=CARTESIAN_POINT('',(8.75,11.,17.5));
#317=CARTESIAN_POINT('',(0.,0.,-0.2));
#318=CARTESIAN_POINT('',(-3.8875,0.,-0.2));
#319=CARTESIAN_POINT('',(11.,9.75698415389909,-0.2));
#320=CARTESIAN_POINT('',(9.75698415389835,9.75698415389909,-0.2));
#321=CARTESIAN_POINT('',(-9.75698415389835,9.75698415389909,-0.2));
#322=CARTESIAN_POINT('',(9.75698415389835,11.,-0.2));
#323=CARTESIAN_POINT('',(9.75698415389835,-9.75698415389835,-0.200000000000013));
#324=CARTESIAN_POINT('',(11.,-9.75698415389835,-0.200000000000013));
#325=CARTESIAN_POINT('',(-9.75698415389909,-9.75698415389835,-0.2));
#326=CARTESIAN_POINT('',(-9.75698415389909,11.,-0.2));
#327=CARTESIAN_POINT('',(-9.95698415389909,11.,-0.2));
#328=CARTESIAN_POINT('',(9.73149012493269,-9.73149012493269,0.530053470662617));
#329=CARTESIAN_POINT('',(9.18079145728452,-9.18079145728453,16.3));
#330=CARTESIAN_POINT('',(9.75825297559506,9.75825297559506,-0.236334299477974));
#331=CARTESIAN_POINT('',(9.18079145728453,9.18079145728453,16.3));
#332=CARTESIAN_POINT('',(9.18079145728452,11.,16.3));
#333=CARTESIAN_POINT('',(9.75698415389835,11.,-0.200000000000013));
#334=CARTESIAN_POINT('',(8.55,8.55,16.45));
#335=CARTESIAN_POINT('',(8.55,8.55,16.3));
#336=CARTESIAN_POINT('',(8.55,-8.55,16.45));
#337=CARTESIAN_POINT('',(8.55,-8.55,16.3));
#338=CARTESIAN_POINT('',(8.55,11.,16.3));
#339=CARTESIAN_POINT('',(8.55,11.,16.45));
#340=CARTESIAN_POINT('',(-8.55,8.55,17.5));
#341=CARTESIAN_POINT('',(-8.55,8.55,16.3));
#342=CARTESIAN_POINT('',(-8.55,11.,16.3));
#343=CARTESIAN_POINT('',(-8.55,-8.55,16.3));
#344=CARTESIAN_POINT('',(-8.55,-8.55,17.5));
#345=CARTESIAN_POINT('',(-8.55,11.,17.5));
#346=CARTESIAN_POINT('',(11.,8.55,16.3));
#347=CARTESIAN_POINT('',(-8.899999999999,-8.55,16.3));
#348=CARTESIAN_POINT('',(11.,-9.18079145728453,16.3));
#349=CARTESIAN_POINT('',(-9.18079145728452,-9.18079145728453,16.3));
#350=CARTESIAN_POINT('',(11.,9.18079145728453,16.3));
#351=CARTESIAN_POINT('',(-9.18079145728453,9.18079145728453,16.3));
#352=CARTESIAN_POINT('',(-9.18079145728453,11.,16.3));
#353=CARTESIAN_POINT('',(-8.899999999999,11.,16.3));
#354=CARTESIAN_POINT('',(-9.63406169308902,9.63406169308902,3.32003872189521));
#355=CARTESIAN_POINT('',(-9.33550500675039,-9.33550500675038,11.8695836111967));
#356=CARTESIAN_POINT('',(-9.36051673579317,11.,11.1533414032839));
#357=CARTESIAN_POINT('',(11.,8.55,16.45));
#358=CARTESIAN_POINT('',(11.,9.75698415389835,-0.200000000000026));
#359=CARTESIAN_POINT('',(11.,-9.63264160953113,3.36070459434186));
#360=CARTESIAN_POINT('',(11.,-8.55,17.5));
#361=CARTESIAN_POINT('',(0.,0.,-0.200000000000013));
#362=MECHANICAL_DESIGN_GEOMETRIC_PRESENTATION_REPRESENTATION('',(#24),#363);
#363=(
GEOMETRIC_REPRESENTATION_CONTEXT(3)
GLOBAL_UNCERTAINTY_ASSIGNED_CONTEXT((#364))
GLOBAL_UNIT_ASSIGNED_CONTEXT((#370,#366,#365))
REPRESENTATION_CONTEXT('KDS-DE_7-8_Kunden_Info',
'TOP_LEVEL_ASSEMBLY_PART')
);
#364=UNCERTAINTY_MEASURE_WITH_UNIT(LENGTH_MEASURE(2.E-5),#370,
'DISTANCE_ACCURACY_VALUE','Maximum Tolerance applied to model');
#365=(
NAMED_UNIT(*)
SI_UNIT($,.STERADIAN.)
SOLID_ANGLE_UNIT()
);
#366=(
CONVERSION_BASED_UNIT('DEGREE',#368)
NAMED_UNIT(#367)
PLANE_ANGLE_UNIT()
);
#367=DIMENSIONAL_EXPONENTS(0.,0.,0.,0.,0.,0.,0.);
#368=PLANE_ANGLE_MEASURE_WITH_UNIT(PLANE_ANGLE_MEASURE(0.0174532925),#369);
#369=(
NAMED_UNIT(*)
PLANE_ANGLE_UNIT()
SI_UNIT($,.RADIAN.)
);
#370=(
LENGTH_UNIT()
NAMED_UNIT(*)
SI_UNIT(.MILLI.,.METRE.)
);
ENDSEC;
END-ISO-10303-21;
