ISO-10303-21;
HEADER;
/* Generated by software containing ST-Developer
 * from STEP Tools, Inc. (www.steptools.com) 
 */
/* OPTION: using custom schema-name function */

FILE_DESCRIPTION(
/* description */ (''),
/* implementation_level */ '2;1');

FILE_NAME(
/* name */ '28526.4_28567.6_KDS-DE_6-7.stp',
/* time_stamp */ '2018-02-12T13:24:41+01:00',
/* author */ (''),
/* organization */ (''),
/* preprocessor_version */ 'ST-DEVELOPER v16',
/* originating_system */ 'SIEMENS PLM Software NX 10.0',
/* authorisation */ '');

FILE_SCHEMA (('CONFIG_CONTROL_DESIGN'));
ENDSEC;

DATA;
#10=SHAPE_REPRESENTATION_RELATIONSHIP('None',
'relationship between 28526.4_28567.6_KDS-DE_6-7-None and KDS-DE_6-7_kunde
n_info-None',#92,#11);
#11=ADVANCED_BREP_SHAPE_REPRESENTATION('28526.4_28567.6_KDS-DE_6-7-None',(#93),
#423);
#12=CC_DESIGN_APPROVAL(#24,(#82));
#13=CC_DESIGN_APPROVAL(#25,(#84));
#14=CC_DESIGN_APPROVAL(#26,(#31));
#15=APPROVAL_PERSON_ORGANIZATION(#69,#24,#18);
#16=APPROVAL_PERSON_ORGANIZATION(#70,#25,#19);
#17=APPROVAL_PERSON_ORGANIZATION(#71,#26,#20);
#18=APPROVAL_ROLE('approver');
#19=APPROVAL_ROLE('approver');
#20=APPROVAL_ROLE('approver');
#21=APPROVAL_DATE_TIME(#39,#24);
#22=APPROVAL_DATE_TIME(#40,#25);
#23=APPROVAL_DATE_TIME(#41,#26);
#24=APPROVAL(#27,' ');
#25=APPROVAL(#28,' ');
#26=APPROVAL(#29,' ');
#27=APPROVAL_STATUS('not_yet_approved');
#28=APPROVAL_STATUS('not_yet_approved');
#29=APPROVAL_STATUS('not_yet_approved');
#30=CC_DESIGN_SECURITY_CLASSIFICATION(#31,(#84));
#31=SECURITY_CLASSIFICATION(' ',' ',#32);
#32=SECURITY_CLASSIFICATION_LEVEL('confidential');
#33=CC_DESIGN_DATE_AND_TIME_ASSIGNMENT(#37,#35,(#82));
#34=CC_DESIGN_DATE_AND_TIME_ASSIGNMENT(#38,#36,(#31));
#35=DATE_TIME_ROLE('creation_date');
#36=DATE_TIME_ROLE('classification_date');
#37=DATE_AND_TIME(#52,#42);
#38=DATE_AND_TIME(#53,#43);
#39=DATE_AND_TIME(#54,#44);
#40=DATE_AND_TIME(#55,#45);
#41=DATE_AND_TIME(#56,#46);
#42=LOCAL_TIME(0,0,0.,#47);
#43=LOCAL_TIME(0,0,0.,#48);
#44=LOCAL_TIME(0,0,0.,#49);
#45=LOCAL_TIME(0,0,0.,#50);
#46=LOCAL_TIME(0,0,0.,#51);
#47=COORDINATED_UNIVERSAL_TIME_OFFSET(0,0,.BEHIND.);
#48=COORDINATED_UNIVERSAL_TIME_OFFSET(0,0,.BEHIND.);
#49=COORDINATED_UNIVERSAL_TIME_OFFSET(0,0,.BEHIND.);
#50=COORDINATED_UNIVERSAL_TIME_OFFSET(0,0,.BEHIND.);
#51=COORDINATED_UNIVERSAL_TIME_OFFSET(0,0,.BEHIND.);
#52=CALENDAR_DATE(0,1,1);
#53=CALENDAR_DATE(0,1,1);
#54=CALENDAR_DATE(0,1,1);
#55=CALENDAR_DATE(0,1,1);
#56=CALENDAR_DATE(0,1,1);
#57=CC_DESIGN_PERSON_AND_ORGANIZATION_ASSIGNMENT(#65,#61,(#82,#84));
#58=CC_DESIGN_PERSON_AND_ORGANIZATION_ASSIGNMENT(#66,#62,(#86));
#59=CC_DESIGN_PERSON_AND_ORGANIZATION_ASSIGNMENT(#67,#63,(#84));
#60=CC_DESIGN_PERSON_AND_ORGANIZATION_ASSIGNMENT(#68,#64,(#31));
#61=PERSON_AND_ORGANIZATION_ROLE('creator');
#62=PERSON_AND_ORGANIZATION_ROLE('design_owner');
#63=PERSON_AND_ORGANIZATION_ROLE('design_supplier');
#64=PERSON_AND_ORGANIZATION_ROLE('classification_officer');
#65=PERSON_AND_ORGANIZATION(#79,#72);
#66=PERSON_AND_ORGANIZATION(#79,#73);
#67=PERSON_AND_ORGANIZATION(#79,#74);
#68=PERSON_AND_ORGANIZATION(#79,#75);
#69=PERSON_AND_ORGANIZATION(#79,#76);
#70=PERSON_AND_ORGANIZATION(#79,#77);
#71=PERSON_AND_ORGANIZATION(#79,#78);
#72=ORGANIZATION(' ',' ',' ');
#73=ORGANIZATION(' ',' ',' ');
#74=ORGANIZATION(' ',' ',' ');
#75=ORGANIZATION(' ',' ',' ');
#76=ORGANIZATION(' ',' ',' ');
#77=ORGANIZATION(' ',' ',' ');
#78=ORGANIZATION(' ',' ',' ');
#79=PERSON(' ',' ',' ',(' '),$,$);
#80=SHAPE_DEFINITION_REPRESENTATION(#81,#92);
#81=PRODUCT_DEFINITION_SHAPE('','',#82);
#82=PRODUCT_DEFINITION(' ','',#84,#83);
#83=DESIGN_CONTEXT('',#91,'design');
#84=PRODUCT_DEFINITION_FORMATION_WITH_SPECIFIED_SOURCE(' ',' ',#86,
 .NOT_KNOWN.);
#85=PRODUCT_RELATED_PRODUCT_CATEGORY('detail','',(#86));
#86=PRODUCT('28526.4_28567.6_KDS-DE_6-7','28526.4_28567.6_KDS-DE_6-7',' ',(#89));
#87=PRODUCT_CATEGORY('part',' ');
#88=PRODUCT_CATEGORY(' ','');
#89=MECHANICAL_CONTEXT(' ',#91,'mechanical');
#90=APPLICATION_PROTOCOL_DEFINITION('international standard',
'config_control_design',2010,#91);
#91=APPLICATION_CONTEXT(
'configuration controlled 3D designs of mechanical parts and assemblie
s');
#92=SHAPE_REPRESENTATION('28526.4_28567.6_KDS-DE_6-7-None',(#297),#423);
#93=MANIFOLD_SOLID_BREP('',#94);
#94=CLOSED_SHELL('',(#104,#105,#106,#107,#108,#109,#110,#111,#112,#113,
#114,#115));
#95=CYLINDRICAL_SURFACE('',#311,3.3875);
#96=FACE_OUTER_BOUND('',#141,.T.);
#97=FACE_OUTER_BOUND('',#142,.T.);
#98=FACE_OUTER_BOUND('',#143,.T.);
#99=FACE_OUTER_BOUND('',#146,.T.);
#100=FACE_OUTER_BOUND('',#147,.T.);
#101=FACE_OUTER_BOUND('',#148,.T.);
#102=FACE_OUTER_BOUND('',#149,.T.);
#103=FACE_OUTER_BOUND('',#150,.T.);
#104=ADVANCED_FACE('',(#129,#130),#116,.T.);
#105=ADVANCED_FACE('',(#131,#132),#117,.T.);
#106=ADVANCED_FACE('',(#96),#118,.T.);
#107=ADVANCED_FACE('',(#97),#119,.T.);
#108=ADVANCED_FACE('',(#98),#120,.T.);
#109=ADVANCED_FACE('',(#133,#134),#121,.T.);
#110=ADVANCED_FACE('',(#99),#122,.T.);
#111=ADVANCED_FACE('',(#100),#123,.F.);
#112=ADVANCED_FACE('',(#101),#124,.F.);
#113=ADVANCED_FACE('',(#102),#125,.F.);
#114=ADVANCED_FACE('',(#103),#126,.F.);
#115=ADVANCED_FACE('',(#135,#136),#95,.F.);
#116=PLANE('',#299);
#117=PLANE('',#301);
#118=PLANE('',#302);
#119=PLANE('',#303);
#120=PLANE('',#304);
#121=PLANE('',#305);
#122=PLANE('',#306);
#123=PLANE('',#307);
#124=PLANE('',#308);
#125=PLANE('',#309);
#126=PLANE('',#310);
#127=CIRCLE('',#298,3.3875);
#128=CIRCLE('',#300,3.3875);
#129=FACE_BOUND('',#137,.T.);
#130=FACE_BOUND('',#138,.T.);
#131=FACE_BOUND('',#139,.T.);
#132=FACE_BOUND('',#140,.T.);
#133=FACE_BOUND('',#144,.T.);
#134=FACE_BOUND('',#145,.T.);
#135=FACE_BOUND('',#151,.T.);
#136=FACE_BOUND('',#152,.T.);
#137=EDGE_LOOP('',(#153,#154,#155,#156));
#138=EDGE_LOOP('',(#157));
#139=EDGE_LOOP('',(#158));
#140=EDGE_LOOP('',(#159,#160,#161,#162));
#141=EDGE_LOOP('',(#163,#164,#165,#166));
#142=EDGE_LOOP('',(#167,#168,#169,#170));
#143=EDGE_LOOP('',(#171,#172,#173,#174));
#144=EDGE_LOOP('',(#175,#176,#177,#178));
#145=EDGE_LOOP('',(#179,#180,#181,#182));
#146=EDGE_LOOP('',(#183,#184,#185,#186));
#147=EDGE_LOOP('',(#187,#188,#189,#190));
#148=EDGE_LOOP('',(#191,#192,#193,#194));
#149=EDGE_LOOP('',(#195,#196,#197,#198));
#150=EDGE_LOOP('',(#199,#200,#201,#202));
#151=EDGE_LOOP('',(#203));
#152=EDGE_LOOP('',(#204));
#153=ORIENTED_EDGE('',*,*,#223,.F.);
#154=ORIENTED_EDGE('',*,*,#224,.F.);
#155=ORIENTED_EDGE('',*,*,#225,.T.);
#156=ORIENTED_EDGE('',*,*,#226,.T.);
#157=ORIENTED_EDGE('',*,*,#227,.T.);
#158=ORIENTED_EDGE('',*,*,#228,.F.);
#159=ORIENTED_EDGE('',*,*,#229,.F.);
#160=ORIENTED_EDGE('',*,*,#230,.T.);
#161=ORIENTED_EDGE('',*,*,#231,.T.);
#162=ORIENTED_EDGE('',*,*,#232,.F.);
#163=ORIENTED_EDGE('',*,*,#233,.F.);
#164=ORIENTED_EDGE('',*,*,#230,.F.);
#165=ORIENTED_EDGE('',*,*,#234,.F.);
#166=ORIENTED_EDGE('',*,*,#235,.T.);
#167=ORIENTED_EDGE('',*,*,#236,.F.);
#168=ORIENTED_EDGE('',*,*,#224,.T.);
#169=ORIENTED_EDGE('',*,*,#237,.F.);
#170=ORIENTED_EDGE('',*,*,#238,.F.);
#171=ORIENTED_EDGE('',*,*,#239,.F.);
#172=ORIENTED_EDGE('',*,*,#240,.T.);
#173=ORIENTED_EDGE('',*,*,#241,.F.);
#174=ORIENTED_EDGE('',*,*,#226,.F.);
#175=ORIENTED_EDGE('',*,*,#242,.F.);
#176=ORIENTED_EDGE('',*,*,#238,.T.);
#177=ORIENTED_EDGE('',*,*,#243,.T.);
#178=ORIENTED_EDGE('',*,*,#240,.F.);
#179=ORIENTED_EDGE('',*,*,#244,.T.);
#180=ORIENTED_EDGE('',*,*,#235,.F.);
#181=ORIENTED_EDGE('',*,*,#245,.T.);
#182=ORIENTED_EDGE('',*,*,#246,.F.);
#183=ORIENTED_EDGE('',*,*,#246,.T.);
#184=ORIENTED_EDGE('',*,*,#247,.F.);
#185=ORIENTED_EDGE('',*,*,#232,.T.);
#186=ORIENTED_EDGE('',*,*,#248,.F.);
#187=ORIENTED_EDGE('',*,*,#225,.F.);
#188=ORIENTED_EDGE('',*,*,#236,.T.);
#189=ORIENTED_EDGE('',*,*,#242,.T.);
#190=ORIENTED_EDGE('',*,*,#239,.T.);
#191=ORIENTED_EDGE('',*,*,#247,.T.);
#192=ORIENTED_EDGE('',*,*,#245,.F.);
#193=ORIENTED_EDGE('',*,*,#234,.T.);
#194=ORIENTED_EDGE('',*,*,#229,.T.);
#195=ORIENTED_EDGE('',*,*,#231,.F.);
#196=ORIENTED_EDGE('',*,*,#233,.T.);
#197=ORIENTED_EDGE('',*,*,#244,.F.);
#198=ORIENTED_EDGE('',*,*,#248,.T.);
#199=ORIENTED_EDGE('',*,*,#243,.F.);
#200=ORIENTED_EDGE('',*,*,#237,.T.);
#201=ORIENTED_EDGE('',*,*,#223,.T.);
#202=ORIENTED_EDGE('',*,*,#241,.T.);
#203=ORIENTED_EDGE('',*,*,#228,.T.);
#204=ORIENTED_EDGE('',*,*,#227,.F.);
#205=VERTEX_POINT('',#368);
#206=VERTEX_POINT('',#369);
#207=VERTEX_POINT('',#371);
#208=VERTEX_POINT('',#373);
#209=VERTEX_POINT('',#376);
#210=VERTEX_POINT('',#379);
#211=VERTEX_POINT('',#381);
#212=VERTEX_POINT('',#382);
#213=VERTEX_POINT('',#384);
#214=VERTEX_POINT('',#386);
#215=VERTEX_POINT('',#390);
#216=VERTEX_POINT('',#392);
#217=VERTEX_POINT('',#396);
#218=VERTEX_POINT('',#398);
#219=VERTEX_POINT('',#402);
#220=VERTEX_POINT('',#404);
#221=VERTEX_POINT('',#410);
#222=VERTEX_POINT('',#412);
#223=EDGE_CURVE('',#205,#206,#249,.T.);
#224=EDGE_CURVE('',#207,#205,#250,.T.);
#225=EDGE_CURVE('',#207,#208,#251,.T.);
#226=EDGE_CURVE('',#208,#206,#252,.T.);
#227=EDGE_CURVE('',#209,#209,#127,.T.);
#228=EDGE_CURVE('',#210,#210,#128,.T.);
#229=EDGE_CURVE('',#211,#212,#253,.T.);
#230=EDGE_CURVE('',#211,#213,#254,.T.);
#231=EDGE_CURVE('',#213,#214,#255,.T.);
#232=EDGE_CURVE('',#212,#214,#256,.T.);
#233=EDGE_CURVE('',#213,#215,#257,.T.);
#234=EDGE_CURVE('',#216,#211,#258,.T.);
#235=EDGE_CURVE('',#216,#215,#259,.T.);
#236=EDGE_CURVE('',#207,#217,#260,.T.);
#237=EDGE_CURVE('',#218,#205,#261,.T.);
#238=EDGE_CURVE('',#217,#218,#262,.T.);
#239=EDGE_CURVE('',#219,#208,#263,.T.);
#240=EDGE_CURVE('',#219,#220,#264,.T.);
#241=EDGE_CURVE('',#206,#220,#265,.T.);
#242=EDGE_CURVE('',#217,#219,#266,.T.);
#243=EDGE_CURVE('',#218,#220,#267,.T.);
#244=EDGE_CURVE('',#221,#215,#268,.T.);
#245=EDGE_CURVE('',#216,#222,#269,.T.);
#246=EDGE_CURVE('',#221,#222,#270,.T.);
#247=EDGE_CURVE('',#212,#222,#271,.T.);
#248=EDGE_CURVE('',#221,#214,#272,.T.);
#249=LINE('',#367,#273);
#250=LINE('',#370,#274);
#251=LINE('',#372,#275);
#252=LINE('',#374,#276);
#253=LINE('',#380,#277);
#254=LINE('',#383,#278);
#255=LINE('',#385,#279);
#256=LINE('',#387,#280);
#257=LINE('',#389,#281);
#258=LINE('',#391,#282);
#259=LINE('',#393,#283);
#260=LINE('',#395,#284);
#261=LINE('',#397,#285);
#262=LINE('',#399,#286);
#263=LINE('',#401,#287);
#264=LINE('',#403,#288);
#265=LINE('',#405,#289);
#266=LINE('',#407,#290);
#267=LINE('',#408,#291);
#268=LINE('',#409,#292);
#269=LINE('',#411,#293);
#270=LINE('',#413,#294);
#271=LINE('',#415,#295);
#272=LINE('',#416,#296);
#273=VECTOR('',#314,1.);
#274=VECTOR('',#315,1.);
#275=VECTOR('',#316,1.);
#276=VECTOR('',#317,1.);
#277=VECTOR('',#324,1.);
#278=VECTOR('',#325,1.);
#279=VECTOR('',#326,1.);
#280=VECTOR('',#327,1.);
#281=VECTOR('',#330,1.);
#282=VECTOR('',#331,1.);
#283=VECTOR('',#332,1.);
#284=VECTOR('',#335,1.);
#285=VECTOR('',#336,1.);
#286=VECTOR('',#337,1.);
#287=VECTOR('',#340,1.);
#288=VECTOR('',#341,1.);
#289=VECTOR('',#342,1.);
#290=VECTOR('',#345,1.);
#291=VECTOR('',#346,1.);
#292=VECTOR('',#347,1.);
#293=VECTOR('',#348,1.);
#294=VECTOR('',#349,1.);
#295=VECTOR('',#352,1.);
#296=VECTOR('',#353,1.);
#297=AXIS2_PLACEMENT_3D('',#366,#312,#313);
#298=AXIS2_PLACEMENT_3D('',#375,#318,#319);
#299=AXIS2_PLACEMENT_3D('',#377,#320,#321);
#300=AXIS2_PLACEMENT_3D('',#378,#322,#323);
#301=AXIS2_PLACEMENT_3D('',#388,#328,#329);
#302=AXIS2_PLACEMENT_3D('',#394,#333,#334);
#303=AXIS2_PLACEMENT_3D('',#400,#338,#339);
#304=AXIS2_PLACEMENT_3D('',#406,#343,#344);
#305=AXIS2_PLACEMENT_3D('',#414,#350,#351);
#306=AXIS2_PLACEMENT_3D('',#417,#354,#355);
#307=AXIS2_PLACEMENT_3D('',#418,#356,#357);
#308=AXIS2_PLACEMENT_3D('',#419,#358,#359);
#309=AXIS2_PLACEMENT_3D('',#420,#360,#361);
#310=AXIS2_PLACEMENT_3D('',#421,#362,#363);
#311=AXIS2_PLACEMENT_3D('',#422,#364,#365);
#312=DIRECTION('',(0.,0.,1.));
#313=DIRECTION('',(1.,0.,0.));
#314=DIRECTION('',(-1.,0.,0.));
#315=DIRECTION('',(0.,-1.,0.));
#316=DIRECTION('',(-1.,0.,0.));
#317=DIRECTION('',(0.,-1.,0.));
#318=DIRECTION('',(0.,0.,-1.));
#319=DIRECTION('',(-1.,0.,0.));
#320=DIRECTION('',(0.,0.,1.));
#321=DIRECTION('',(-1.,0.,0.));
#322=DIRECTION('',(0.,0.,-1.));
#323=DIRECTION('',(-1.,0.,0.));
#324=DIRECTION('',(-1.,0.,0.));
#325=DIRECTION('',(0.,-1.,0.));
#326=DIRECTION('',(-1.,0.,0.));
#327=DIRECTION('',(0.,-1.,0.));
#328=DIRECTION('',(0.,0.,-1.));
#329=DIRECTION('',(1.,0.,0.));
#330=DIRECTION('',(-0.0348782627423735,0.034878262742374,0.998782765958718));
#331=DIRECTION('',(0.0348782627423735,0.0348782627423734,-0.998782765958718));
#332=DIRECTION('',(0.,-1.,0.));
#333=DIRECTION('',(0.999390827019096,0.,0.0348994967024999));
#334=DIRECTION('',(-0.0348994967024999,0.,0.999390827019096));
#335=DIRECTION('',(0.,0.,-1.));
#336=DIRECTION('',(0.,0.,1.));
#337=DIRECTION('',(0.,-1.,0.));
#338=DIRECTION('',(1.,0.,0.));
#339=DIRECTION('',(0.,0.,1.));
#340=DIRECTION('',(0.,0.,1.));
#341=DIRECTION('',(0.,-1.,0.));
#342=DIRECTION('',(0.,0.,-1.));
#343=DIRECTION('',(-1.,0.,0.));
#344=DIRECTION('',(0.,0.,-1.));
#345=DIRECTION('',(-1.,0.,0.));
#346=DIRECTION('',(-1.,0.,0.));
#347=DIRECTION('',(1.,0.,0.));
#348=DIRECTION('',(-1.,0.,0.));
#349=DIRECTION('',(0.,1.,0.));
#350=DIRECTION('',(0.,0.,1.));
#351=DIRECTION('',(-1.,0.,0.));
#352=DIRECTION('',(0.0348782627423739,-0.0348782627423734,0.998782765958718));
#353=DIRECTION('',(-0.0348782627423734,-0.0348782627423734,-0.998782765958718));
#354=DIRECTION('',(-0.999390827019096,0.,0.0348994967024998));
#355=DIRECTION('',(-0.0348994967024998,0.,-0.999390827019096));
#356=DIRECTION('',(0.,-1.,0.));
#357=DIRECTION('',(0.,0.,1.));
#358=DIRECTION('',(0.,-0.999390827019096,-0.0348994967024997));
#359=DIRECTION('',(0.,-0.0348994967024997,0.999390827019096));
#360=DIRECTION('',(0.,0.999390827019096,-0.0348994967025004));
#361=DIRECTION('',(0.,-0.0348994967025004,-0.999390827019096));
#362=DIRECTION('',(0.,1.,0.));
#363=DIRECTION('',(0.,0.,-1.));
#364=DIRECTION('',(0.,0.,-1.));
#365=DIRECTION('',(-1.,0.,0.));
#366=CARTESIAN_POINT('',(0.,0.,0.));
#367=CARTESIAN_POINT('',(11.,-8.55,17.5));
#368=CARTESIAN_POINT('',(8.55,-8.55,17.5));
#369=CARTESIAN_POINT('',(-8.55,-8.55,17.5));
#370=CARTESIAN_POINT('',(8.55,11.,17.5));
#371=CARTESIAN_POINT('',(8.55,8.55,17.5));
#372=CARTESIAN_POINT('',(11.,8.55,17.5));
#373=CARTESIAN_POINT('',(-8.55,8.55,17.5));
#374=CARTESIAN_POINT('',(-8.55,11.,17.5));
#375=CARTESIAN_POINT('',(0.,0.,17.5));
#376=CARTESIAN_POINT('',(-3.3875,0.,17.5));
#377=CARTESIAN_POINT('',(8.75,11.,17.5));
#378=CARTESIAN_POINT('',(0.,0.,-0.200000000000013));
#379=CARTESIAN_POINT('',(-3.3875,0.,-0.200000000000013));
#380=CARTESIAN_POINT('',(11.,9.75698415389909,-0.2));
#381=CARTESIAN_POINT('',(9.75698415389835,9.75698415389909,-0.2));
#382=CARTESIAN_POINT('',(-9.75698415389835,9.75698415389909,-0.2));
#383=CARTESIAN_POINT('',(9.75698415389835,11.,-0.2));
#384=CARTESIAN_POINT('',(9.75698415389835,-9.75698415389835,-0.200000000000013));
#385=CARTESIAN_POINT('',(11.,-9.75698415389835,-0.200000000000013));
#386=CARTESIAN_POINT('',(-9.75698415389909,-9.75698415389835,-0.2));
#387=CARTESIAN_POINT('',(-9.75698415389909,11.,-0.2));
#388=CARTESIAN_POINT('',(-9.95698415389909,11.,-0.2));
#389=CARTESIAN_POINT('',(9.73149012493269,-9.73149012493269,0.530053470662617));
#390=CARTESIAN_POINT('',(9.18079145728452,-9.18079145728453,16.3));
#391=CARTESIAN_POINT('',(9.75825297559506,9.75825297559506,-0.236334299477974));
#392=CARTESIAN_POINT('',(9.18079145728453,9.18079145728453,16.3));
#393=CARTESIAN_POINT('',(9.18079145728452,11.,16.3));
#394=CARTESIAN_POINT('',(9.75698415389835,11.,-0.200000000000013));
#395=CARTESIAN_POINT('',(8.55,8.55,16.45));
#396=CARTESIAN_POINT('',(8.55,8.55,16.3));
#397=CARTESIAN_POINT('',(8.55,-8.55,16.45));
#398=CARTESIAN_POINT('',(8.55,-8.55,16.3));
#399=CARTESIAN_POINT('',(8.55,11.,16.3));
#400=CARTESIAN_POINT('',(8.55,11.,16.45));
#401=CARTESIAN_POINT('',(-8.55,8.55,17.5));
#402=CARTESIAN_POINT('',(-8.55,8.55,16.3));
#403=CARTESIAN_POINT('',(-8.55,11.,16.3));
#404=CARTESIAN_POINT('',(-8.55,-8.55,16.3));
#405=CARTESIAN_POINT('',(-8.55,-8.55,17.5));
#406=CARTESIAN_POINT('',(-8.55,11.,17.5));
#407=CARTESIAN_POINT('',(11.,8.55,16.3));
#408=CARTESIAN_POINT('',(-8.899999999999,-8.55,16.3));
#409=CARTESIAN_POINT('',(11.,-9.18079145728453,16.3));
#410=CARTESIAN_POINT('',(-9.18079145728452,-9.18079145728453,16.3));
#411=CARTESIAN_POINT('',(11.,9.18079145728453,16.3));
#412=CARTESIAN_POINT('',(-9.18079145728453,9.18079145728453,16.3));
#413=CARTESIAN_POINT('',(-9.18079145728453,11.,16.3));
#414=CARTESIAN_POINT('',(-8.899999999999,11.,16.3));
#415=CARTESIAN_POINT('',(-9.63406169308902,9.63406169308902,3.32003872189521));
#416=CARTESIAN_POINT('',(-9.33550500675039,-9.33550500675038,11.8695836111967));
#417=CARTESIAN_POINT('',(-9.36051673579317,11.,11.1533414032839));
#418=CARTESIAN_POINT('',(11.,8.55,16.45));
#419=CARTESIAN_POINT('',(11.,9.75698415389835,-0.200000000000026));
#420=CARTESIAN_POINT('',(11.,-9.63264160953113,3.36070459434186));
#421=CARTESIAN_POINT('',(11.,-8.55,17.5));
#422=CARTESIAN_POINT('',(0.,0.,-0.200000000000013));
#423=(
GEOMETRIC_REPRESENTATION_CONTEXT(3)
GLOBAL_UNCERTAINTY_ASSIGNED_CONTEXT((#424))
GLOBAL_UNIT_ASSIGNED_CONTEXT((#430,#426,#425))
REPRESENTATION_CONTEXT('28526.4_28567.6_KDS-DE_6-7',
'TOP_LEVEL_ASSEMBLY_PART')
);
#424=UNCERTAINTY_MEASURE_WITH_UNIT(LENGTH_MEASURE(2.E-5),#430,
'DISTANCE_ACCURACY_VALUE','Maximum Tolerance applied to model');
#425=(
NAMED_UNIT(*)
SI_UNIT($,.STERADIAN.)
SOLID_ANGLE_UNIT()
);
#426=(
CONVERSION_BASED_UNIT('DEGREE',#428)
NAMED_UNIT(#427)
PLANE_ANGLE_UNIT()
);
#427=DIMENSIONAL_EXPONENTS(0.,0.,0.,0.,0.,0.,0.);
#428=PLANE_ANGLE_MEASURE_WITH_UNIT(PLANE_ANGLE_MEASURE(0.0174532925),#429);
#429=(
NAMED_UNIT(*)
PLANE_ANGLE_UNIT()
SI_UNIT($,.RADIAN.)
);
#430=(
LENGTH_UNIT()
NAMED_UNIT(*)
SI_UNIT(.MILLI.,.METRE.)
);
ENDSEC;
END-ISO-10303-21;
